Guitar Tabs, Chords and Lyrics
Major upgrade!! After one year development the new version of Chordie is now online! Please give feedback.


Elizabeth on the Bathroom Floor  EELS

Tuning: STANDARD w/ CAPO 7rd fret
0:14-0:22 (first 14 seconds have no guitar)
[Bm7] [Bb]  
 
 E|---------0~---------0~------------0~------------1-----------1~--------|
 B|----3~------3~-3~------3~------3~----3~------3~----3~----3~-----------|
 G|-------2----------2-------1-1~----------1/3~----------3~--------3~----|
 D|----4~---------4~-----------4~------------3~--------------------3~----|
 A|----------------------------------------------------------------------|
 E|----------------------------------------------------------------------|

[Bm7] [Bb]  
 
 E|---------0~---------0~------------0~------------1-----------1~--------|
 B|----3~------3~-3~------3~------3~----3~------3~----3~----3~-----------|
 G|-------2----------2-------1-1~----------1/3~----------3~--------3~----|
 D|----4~---------4~-----------4~------------3~--------------------3~----|
 A|----------------------------------------------------------------------|
 E|----------------------------------------------------------------------|

(strum) Bm7 Bb X2
[Bm7] laying on the bathroom f[Bb]loor
[Bm7] kitty licks my cheek once mo[Bb]re
and[C] I... I could t[B]ry...
but w[Bm7]aking up is harder when you wanna [Bb]die
[Bm7] Walter's on the telepho[Bb]ne
[Bm7] Tell him I'm not at h[Bb]ome
'cause [C]I... think that [B]I...
am go[Bm7]ing to a place where I am always h[Bb]igh...
[Bm7] My name is Elizab[Bb]eth
[Bm7] My life is sh*t and [Bb]p**s
Out
 
 E|---------0~---------0~------------0~------------1-----------1~--------|
 B|----3~------3~-3~------3~------3~----3~------3~----3~----3~-----------|
 G|-------2----------2-------1-1~----------1/3~----------3~--------3~----|
 D|----4~---------4~-----------4~------------3~--------------------3~----|
 A|----------------------------------------------------------------------|
 E|----------------------------------------------------------------------|
 E|---------0~---------0~------------0~---------0-0-0---------------------|
 B|----3~------3~-3~------3~------3~----3~------0-0-0---------------------|
 G|-------2----------2-------1-1~----------1/3~-3-3-3~- I-----I ----|
 D|----4~---------4~-----------4~------------3~-3-3-3~- I--- ---|
 A|---------------------------------------------1-1-1~- I ade out ---|
 E|-----------------------------------------------------------------------|


Important: The song above is NOT stored on the Chordie server. The original song is hosted at www.azchords.com. Chordie works as a search engine and provides on-the-fly formatting. Chordie does not index songs against artists'/composers' will. To remove this song please click here.

Text color:
Chord color:
Chord grids: 
Font size:    
Page size: 

B Bb Bm7 C
Rate #1 of 5 versions

Login - add to songbook

SHARE PAGE  




You need to log in to post comments