Guitar Tabs, Chords and Lyrics
Login is temporarily disabled for some users. Do not panic. Will be back in an hour or two. DO NOT REREGISTER!!


Tower of Snakes  Eighteen Visions

Band- Eighteen Visions
Song- Tower of Snakes
Tuned down a full step and a half down, drop B:
[Db] [Ab] [E] [B] [Gb] [B]  
/ = Slide down
Pm... = Palm mute
Riff 1
 
 Db|---------------------------------|
 Ab|---------------------------------|
 E |---------------------------------|
 B |5-4-0-8-5-0-5-4-0-8-5-0--0-0-0-0-|
 Gb|5-4-0-8-5-0-5-4-0-8-5-0--0-0-0-0-|
 B |5-4-0-8-5-0-5-4-0-8-5-0--0-0-0-0-|

Pm.....
 
 Db|---------------------------------|
 Ab|---------------------------------|
 E |---------------------------------|
 B |5-4-0-8-5-0-5-4-0-8-5-0--0000000-|
 Gb|5-4-0-8-5-0-5-4-0-8-5-0--0000000-|
 B |5-4-0-8-5-0-5-4-0-8-5-0--0000000-|

Pm.....
Verse
 
 Db|----------------------------------|
 Ab|----------------------------------|
 E |----------------------------------|
 B |0-0-0-0-4-0-0-0-0-0-0-0-0-4/0-4/0-|
 Gb|0-0-0-0-4-0-0-0-0-0-0-0-0-4/0-4/0-|
 B |0-0-0-0-4-0-0-0-0-0-0-0-0-4/0-4/0-|

Pm..... Pm.............
Chorus
 
 Db|------------------------------------------------|
 Ab|------------------------------------------------|
 E |11-11-11-11-11-11-11-11-12-12-12-12-12-12-12-12-|
 B |11-11-11-11-11-11-11-11-12-12-12-12-12-12-12-12-|
 Gb|-9--9--9--9--9--9--9--9-10-10-10-10-10-10-10-10-|
 B |------------------------------------------------|
 Db|------------------------------------------------|
 Ab|------------------------------------------------|
 E |11-11-11-11-11-11-11-11-10-10-10-10-10-10-10-10-|
 B |11-11-11-11-11-11-11-11--x--x--x--x--x--x--x--x-|
 Gb|-9--9--9--9--9--9--9--9--8--8--8--8--8--8--8--8-|
 B |------------------------------------------------|

Verse 2nd Time
 
 Db|---------------------------------|
 Ab|---------------------------------|
 E |---------------------------------|
 B |---------------------------------|
 Gb|---------------------------------|
 B |5-4-0-8-5-0-5-4-0-8-5-0--0-0-0-0-|

Pm.....
 
 Db|---------------------------------|
 Ab|---------------------------------|
 E |---------------------------------|
 B |---------------------------------|
 Gb|---------------------------------|
 B |5-4-0-8-5-0-5-4-0-8-5-0--0000000-|

Pm.....
Finishing Riff (after 2nd Chorus and at very end)
 
 Db|--------------------------------|
 Ab|--------------------------------|
 E |10-10-10-10-10-10-10-10-10-12-7-|
 B |-x--x--x--x--x--x--x--x--x--x-x-|
 Gb|-8--8--8--8--8--8--8--8--8-10-5-|
 B |--------------------------------|

Let last note ring into breakdown call
Breakdown Call
 
 Db|---------------------------------------------------|
 Ab|---------------------------------------------------|
 E |---------------------------------------------------|
 B |4////0-------0---------0-----0---------0---------0-|
 Gb|4////0-0-0-0-0-0-0-0-0-0-0-0-0-0-0-0-0-0-0-0-0-0-0-|
 B |4////0-0-0-0-0-0-0-0-0-0-0-0-0-0-0-0-0-0-0-0-0-0-0-|

Pm.......... Pm..... Pm. Pm..... Pm.....
 
 Db|----------------------------------------------------------------|
 Ab|----------------------------------------------------------------|
 E |----------------------------------------------------------------|
 B |------0---0-0-0-----0---------0-----0---------0-------0-----0-0-|
 Gb|0-0-0-0-0-0-0-0-0-0-0-0-0-0-0-0-0-0-0-0-0-0-0-0-0-0-0-0-0-0-0-0-|
 B |0-0-0-0-0-0-0-0-0-0-0-0-0-0-0-0-0-0-0-0-0-0-0-0-0-0-0-0-0-0-0-0-|

Pm.... . Pm. Pm..... Pm. Pm..... Pm... Pm.
Breakdown Riff 1
 
 Db|--------------------------------|
 Ab|--------------------------------|
 E |------7-------------------------|
 B |0-0-0-x-0-0-0-0-0-4/0-0-0-4/0-0-|
 Gb|0-0-0-5-0-0-0-0-0-4/0-0-0-4/0-0-|
 B |0-0-0---0-0-0-0-0-4/0-0-0-4/0-0-|

Pm... Pm....... Pm. Pm.
Breakdown Riff 2
 
 Db|-----------------------------------|
 Ab|-----------9--------9--------9-----|
 E |----------12-------12-------12-----|
 B |-------------------------------0-0-|
 Gb|-------------------------------0-0-|
 B |000000000----00000----00000----0-0-|

Pm....... Pm... Pm... Pm.
Breakdown Riff 3
 
 Db|-----------------------------------|
 Ab|-----------------------------------|
 E |-----------------------------------|
 B |-------------------------------0-0-|
 Gb|-------------------------------0-0-|
 B |000000000----00000----00000----0-0-|

Pm....... Pm... Pm... Pm.
Next Riff
 
 Db|---------------------------------|
 Ab|---------------------------------|
 E |---------------------------------|
 B |---------------------------------|
 Gb|---------------------------------|
 B |5-4-0-8-5-0-5-4-0-8-5-0--0-0-0-0-|

Pm.....
ORDER
RIFF 1
VERSE
CHORUS
VERSE 2ND TIME
CHORUS
FINISHING RIFF
BREAKDOWN CALL
BREAKDOWN RIFF 1
BREAKDOWN RIFF 2
BREAKDOWN RIFF 3
NEXT RIFF
RIFF 1
CHORUS
FINISHING RIFF

Important: The song above is NOT stored on the Chordie server. The original song is hosted at www.azchords.com. Chordie works as a search engine and provides on-the-fly formatting. Chordie does not index songs against artists'/composers' will. To remove this song please click here.

Text color:
Chord color:
Chord grids: 
Font size:    
Page size: 

Ab B Db E Gb
Rate #2 of 3 versions

Login - add to songbook

SHARE PAGE  



You need to log in to post comments