Guitar Tabs, Chords and Lyrics
Major upgrade!! After one year development the new version of Chordie is now online! Please give feedback.


Gay Bar   Electric Six

 
 E---------------------------
 A---------------------------
 D---------------------------
 G-0-0-3-5-0-----------------
 B-----------4-3-3-0-0-3-4-0-
 E---------------------------

 


 


 (Solo 1)


 


 

 
 E-------------|-------------------------------------
 A-777-9-7/13~-|-14-14-14-14-14-14-------------------
 D-777-9-7/13~-|-14-14-14-14-14-14-10h12-10/12-10h12- do the last bit 3 times
 G-------------|-------------------------------------
 B-------------|-------------------------------------
 E-------------|-------------------------------------

 


 


 (Solo 2)


 


 

 
 E-------------------------|----------------------------
 A-------------------------|----------------------------
 D----------11-------10----|-------15-------15-------15-
 G-10-10-12----12-12----10-|-12b14----12b14----12b14---- do the first bit 4 times
 B-------------------------|----------------------------
 E-------------------------|----------------------------


Important: The song above is NOT stored on the Chordie server. The original song is hosted at www.azchords.com. Chordie works as a search engine and provides on-the-fly formatting. Chordie does not index songs against artists'/composers' will. To remove this song please click here.

This song is displayed as text-only. Transposing and tuning is only available for chordpro-songs.
Rate #1 of 3 versions

Jango Player

Login - add to songbook

SHARE PAGE  




You need to log in to post comments