Guitar Tabs, Chords and Lyrics
Server problems seems to be fixed. Chordie has been experiencing problems with songs disappearing. These issues now seems to be fixed, but still verifying the fix. If you find anything strange, please email admin@chordie.com.


Das alles kommt mit  Element of Crime

Strophe
D Dmaj7 D7 (2x) G Gm D Gm A7
 
 e|-----2-----2-|-----2-----2-|-----2-----2-|-----3-----3-|-----3-----3-|----2-----2-|----3-----3-|------2---0-|
 B|-------3-----|-------2-----|-------1-----|-------3-----|-------3-----|------3-----|------3-----|----2---2---|
 G|---2-----2---|---2-----2---|---2-----2---|---4-----4---|---3-----3---|--2-----2---|--3-----3---|--2---------|
 D|-0-----------|-0-----------|-0-----------|-------------|-------------|-0----------|------------|------------|
 A|-------------|-------------|-------------|-------------|-------------|------------|------------|-0----------|
 E|-------------|-------------|-------------|-3-----------|-3-----------|------------|-3----------|------------|

Refrain:
[Fis] [Bm] [G7] [Gm] [D] [Gm]  
 
 e|-----2-----2-|-----2-----2-|-----2-----2-|-----2-----2-|-----3-----3-|-----3----3-|-----2----2-|---3-----3-|
 B|-------2-----|-------2-----|-------3-----|-------3-----|-------3-----|-------3----|-------3----|-----3-----|
 G|---3-----3---|---3-----3---|---4-----4---|---4-----4---|---4-----3---|---3-----3--|---2-----2--|--3----3---|
 D|-------------|-------------|-------------|-------------|-------------|------------|-0----------|-----------|
 A|-------------|-------------|-2-----------|-2-----------|-------------|------------|------------|-----------|
 E|-2-----------|-2-----------|-------------|-------------|-3-----------|-3----------|------------|-3---------|

[D] [A7]  
 
 e|-----2-----2-|------2---0--|-----------------|
 B|-------3-----|----2---2----|--2-Takte--------|
 G|---2-----2---|--2----------|---D-Dur---------|
 D|-0-----------|-------------|-----------------|
 A|-------------|-0-----------|-----------------|
 E|-------------|-------------|-----------------|

Interlude (anderer Rhytmus!!)
D Dmaj7 D7 G Gm D Gm (rit.) D A7 D
 
 e|-5--2-----|-5--2-----|-5s-2-----|-3--------|-3-5-6--5--3-|-5-------|-3-5-10--------|-5-------|----2-----|-2--|
 B|---3----3-|---2----2-|---1----1-|-----3----|-3-----------|-----3---|-3-------10--8-|-----3---|-5-----5--|-3--|
 G|----------|----------|----------|---4---4--|-3-----------|---2---2-|-3-------------|---2---2-|-2-2------|-2--|
 D|-0--------|-0--------|-0--------|----------|-------------|-0-------|---------------|-0-------|----------|----|
 A|----------|----------|----------|----------|-------------|---------|---------------|---------|-0--------|-5--|
 E|----------|----------|----------|-3--------|-3-----------|---------|-3-------------|---------|----------|----|

Das [D]Glas, aus dem du [Dm7]nie getrunken hast
Der [D7]Küchenschrott, den kein Mensch braucht
Und das [G]Plastikobst, von dem du [Gm]dich optisch er[D]nährst[Gm]
Das alles kommt [D]mit
[A7]Und du [D]auch
Das Klavier, auf dem du nicht spielen kannst
Der Abwasch, den du immer verschiebst
Und die Schokolade, die du in Krankenhausmengen verbrauchst
Das alles kommt mit
Und ich auch
[Fis]Ich will deine Hand, ich will deinen [Bm]Mund
Ich will deinen Kopf, ich will deine [G]Zunge
Ich will deine [Gm]Haare, ich will deine [D]Haut[Gm]
Und den ganzen [D]Unsinn
[A7]Will ich [D]auch
Interlude
Die Hoffnungen, die du verloren hast
Der Zorn, der nicht richtig verraucht
Und die verschusselten Träume, von denen am Morgen nichts bleibt
Das alles kommt mit
Das brauchen wir auch
Ich will deine Hand, ich will deinen Mund
Ich will deinen Kopf, ich will deine Zunge
Ich will deine Haare, ich will deine Haut
Und den ganzen Kummer
Will ich auch
Die Fehler, die du nicht mehr ändern kannst
Die Worte, die du bereust
Und die Nächte, in denen du nicht wusstest wohin mit dir
Die nehmen wir nicht mit
Die lassen wir hier

Important: The song above is NOT stored on the Chordie server. The original song is hosted at www.azchords.com. Chordie works as a search engine and provides on-the-fly formatting. Chordie does not index songs against artists'/composers' will. To remove this song please click here.

Text color:
Chord color:
Chord grids: 
Font size:    
Page size: 

A7 Bm D D7 Dm7 G G7 Gm
Rate #1 of 1 versions

Login - add to songbook

SHARE PAGE  



You need to log in to post comments