Guitar Tabs, Chords and Lyrics
Server problems seems to be fixed. Chordie has been experiencing problems with songs disappearing. These issues now seems to be fixed, but still verifying the fix. If you find anything strange, please email admin@chordie.com.


Du hast die Wahl  Element of Crime

[Cm] [G#m]  
 
 e |---3-3----3-3-|---3-3----3-3-|---4-4----4-4-|---4-4----4-4-|
 B |---4-4----4-4-|---4-4----4-4-|---4-4----4-4-|---4-4----4-4-|
 G |---5-5----5-5-|---5-5----5-5-|---4-4----4-4-|---4-4----4-4-|
 D |--------5-----|--------5-----|--------------|--------------|
 A |-3------------|-3------------|--------6-----|--------5-----|
 E |--------------|--------------|-4------------|-4------------|

[Cm] [G#m]  
 
 e |---3-3----3-3-|---3-3----3-3-|---4-4----4-4-|---4-4----4-4-|
 B |---4-4----4-4-|---4-4----4-4-|---4-4----4-4-|---4-4----4-4-|
 G |---5-5----5-5-|---5-5----5-5-|---4-4----4-4-|---4-4----4-4-|
 D |--------5-----|--------5-----|--------------|--------------|
 A |-3------------|-3------------|--------6-----|-5------6-----|
 E |--------------|--------------|-4------------|--------------|

[Cm] Ich warte am [G#m]Bahndamm, zwischen den [Cm]Gleisen
Bis entweder ein [C7]Zug kommt oder ein Zeichen von [Fm]dir
Ob das [Bb]Erpressung ist[Bb7], ist mir doch [Eb]egal
Du wirst ge[Db]liebt, Du hast die [Cm]Wahl
Kann [G#m]sein, dass das irgendwie [Cm]blöd ist
Doch nichts ist so [G#m]öde wie ein Sommer a[Cm]llein
||: G#m Cm :|| (Trompete)
Wir schie?en es[G#m] aus 12 Uhr mittags, am Nichtschwimme[Cm]rbecken
Und wenn du nicht [C7]auftauchst, spring ich zu dir [Fm]rein
Ob das ge[Bb]recht ist[Bb7], ist mir doch [Eb]egal
Du wirst ge[Db]liebt, Du hast die [Cm]Wahl
Kann [G#m]sein, dass das irgendwie [Cm]blöd ist
Doch nichts ist so [G#m]öde wie ein Sommer a[Cm]llein
||: G#m Cm :|| 3x C7 Fm Bb Bb7 Eb Db Cm
Ich lock' dich in den [G#m]Garten und bewerf' dich mit [Cm]Blumen
So lang bis du [C7]umfällst und kapit[Fm]ulierst
Ob das Ver[Bb]schwendung ist,[Bb7] ist mir doch [Eb]egal
Wer ver[Db]liebt ist, hat keine [Cm]Wahl
Kann [G#m]sein, dass mir das alles mal [Cm]peinlich ist
Doch nichts ist so [G#m]göttlich wie ein Sommer zu[Cm] zwein
||: G#m Cm :|| 7x
[G#m]  
 
 --------------------------------------------------------------------------------

Spielvorschläge zu einigen Akkorden:
[C7]  
 
 e |---------------|--------------|
 B |-------1/2-----|-1------------|
 G |-----3-------3-|-------0------|
 D |---2-------2---|-----2------2-|
 A |-3-------------|---3------3---|
 E |---------------|--------------|

[Fm]  
 
 e |---1-1----1-1-|---1-1----1-1-|
 B |---1-1----1-1-|---1-1----1-1-|
 G |---1-1----1-1-|---1-1----1-1-|
 D |--------3-----|-1------------|
 A |--------------|--------3-----|
 E |-1------------|--------------| 

[Eb] [Eb]  
 
 e |-----3------3-|-----3----3---| |--------------|--------------|
 B |-----4------4-|-----4----4---| |-----8------8-|-----8----8---|
 G |---3------3---|---3------3---| bzw. |-----8------8-|-----8----8---|
 D |-1------0-----|--------------| |---8------8---|---8------8---|
 A |--------------|-3--------3---| |-6------5-----|--------------|
 E |--------------|--------------| |--------------|-8--------8---| 


Important: The song above is NOT stored on the Chordie server. The original song is hosted at www.azchords.com. Chordie works as a search engine and provides on-the-fly formatting. Chordie does not index songs against artists'/composers' will. To remove this song please click here.

Text color:
Chord color:
Chord grids: 
Font size:    
Page size: 

Bb Bb7 C7 Cm Db Eb Fm G#m
Rate #1 of 1 versions

Login - add to songbook

SHARE PAGE  




You need to log in to post comments