Guitar Tabs, Chords and Lyrics
Server problems seems to be fixed. Chordie has been experiencing problems with songs disappearing. These issues now seems to be fixed, but still verifying the fix. If you find anything strange, please email admin@chordie.com.


Rein gar nichts  Element of Crime

6/8 Takt
Fig.I (Vorspiel: Original 4x, f├╝r Sologitarre und Gesang besser 2x)
 
 e |-------0-----|-------0-----|-------0-----|------0-----0-|
 B |-------1-----|-------1-----|-------1-----|------1-----1-|
 G |-----2-------|-----2-------|-----2-------|----2-----2---|
 D |-------------|-------------|-------------|--------------|
 A |-0---------0-|-------------|-------------|--------------|
 E |-------------|-4---------4-|-3---------3-|-2------------|

Fig.I 3x
Jetzt sitzen wir schon wieder hier, drei Schritte auseinander
Drei Finger hoch der Gin, das Glas im Gesicht
Und ich frag auch gar nicht, wie es dir geht
Was [Dm]soll ich da noch [G]fragen,[C] ich wei├? wie es[E7] steht
Fig.I 4x
Und das ist noch rein, rein, rein, rein gar nichtssssssssss...
||: F G :||
Fig.I 3x
Ich wei├?, du hast heut' fern gesehn, das ist weil du so zitterst
Dein Auto hat der Zahnarzt, und du hast Gold im Mund
Und dein Fahrrad f├Ąhrt immer nur bergauf
Ich [Dm]wei├?, auch du lebst a[G]lleine[C], und auch dich frisst das[E7] auf
Fig.I 4x
Und das ist noch rein, rein, rein, rein gar nichtssssssss...
||: F G :||
Zwischenspiel Fig.I 4x
Melodie Zwischenspiel
 
 e |--------12-------|----------------|----------------|-------------|
 B |-10--------13-12-|-9--------------|----------10----|-------------|
 D |-----------------|------9----9-11-|-12----12----12-|-11-------12-|
 e |-----------------|----------------|------------------|------------------|
 B |-10--------13-12-|-9--------------|------------10----|---------------10-|
 D |-----------------|------9----9-11-|---12-12-12----12-|---11-11-11-12----|
 e |---------10-----|-----------------|------------------|---------------|
 B |---12-13----12--|---9-10-12-10-9--|------------10----|---------------|
 D |----------------|-----------------|---12-12-12----12-|-11-------12---|

Fig.I
 
 e |--------12-------|----------------|---------------|----------------|
 B |-10--------13-12-|-9--------------|---------10----|----------------|
 D |-----------------|------9----9-11-|-12----12---12-|-11---11---11\2-|

Fig.I 3x
Dein Fu├? hat grad mein Bein ber├╝hrt, dein Zeh hat mich gekrault
Drei Finger hoch der Gin, das Glas im Gesicht
Und ich frag auch gar nicht, was du da machst
Komm [Dm]r├╝ber hier, ich[G] kitzel dich[C], mal sehn ob du[E7] lachst
Fig.I 4x
Und das ist noch rein, rein, rein, rein gar nichtsssssss...
||: F G :||

Important: The song above is NOT stored on the Chordie server. The original song is hosted at www.azchords.com. Chordie works as a search engine and provides on-the-fly formatting. Chordie does not index songs against artists'/composers' will. To remove this song please click here.

Text color:
Chord color:
Chord grids: 
Font size:    
Page size: 

C Dm E7 G
Rate #1 of 1 versions

Login - add to songbook

SHARE PAGE  




You need to log in to post comments