Guitar Tabs, Chords and Lyrics
Major upgrade!! After one year development the new version of Chordie is now online! Please give feedback.


Interlude  Elisa

INTRO
- harmonics -
 
 E-----12-----5-----7-----
 B-----12-----5-----7-----
 G-----12-----5-----7-----
 D-----12-----5-----7-----
 A-----12-----5-----7-----
 E--12------5-----7------- x2

PATTERN OF THE FIRST PART OF THE SONG
 
 E------------------------------------------
 B------------------------------------------
 G-----------------------------9-9-----12---
 D---------9--9------9-9-------7-7-----10---
 A--------10-10------7-7------0-------------
 E------0----------0------------------------ repeat x5

I wake up in the morning sun
I work 'til I'm done
I never look at the clock
Living out of time in my cocoon
smooth like water running down my throat
days slide away drawing signs
BRIDGE
- harmonics -
 
 E-----12-----5-----7-----
 B-----12-----5-----7-----
 G-----12-----5-----7-----
 D-----12-----5-----7-----
 A-----12-----5-----7-----
 E--12------5-----7------- x2

REPEAT PREVIOUS PATTERN x 2
I look ahead and then behind
to see if my traces
can make a straight line
the [D]kids are laughing out[C]side
no one looks at the sky[D]
but it's gonna [C]rain
and it's getting [D]cold
the wind starts to [C]blow
something's shaking my [G]soul [C]now
like a [G]tree [C]
but this time I [D]know yeah
this time I [C]know
(Em G Am C)x4
it's simply you
so I'll see you [D]soon
I keep [C]waiting
so I'll see [D]you soon
I'm here [C]waiting [D] [C]

Important: The song above is NOT stored on the Chordie server. The original song is hosted at www.azchords.com. Chordie works as a search engine and provides on-the-fly formatting. Chordie does not index songs against artists'/composers' will. To remove this song please click here.

Text color:
Chord color:
Chord grids: 
Font size:    
Page size: 

C D G
Rate #1 of 1 versions

Jango Player

Login - add to songbook

SHARE PAGE  




You need to log in to post comments