Guitar Tabs, Chords and Lyrics
Server problems seems to be fixed. Chordie has been experiencing problems with songs disappearing. These issues now seems to be fixed, but still verifying the fix. If you find anything strange, please email admin@chordie.com.


Everything Reminds Me of Her  Elliott Smith

Everything Reminds Me of Her
Elliott Smith
Figure 8
Tuning: 1 Step Down (DGCFAD)
Legend:
/ - slide
h - hammer-on
p - pull-off
br - bend release
b - bend
() - ghost note
~ - sustain
d - strum down
u - strum up
Chords:
Fmaj7 xx3210
Fmaj7* x33210
C/G 332010
D xx0232
Dadd11 xx2032
Dm xx0231
Dmadd11 xx2031
D7 xx0212
Am x02210
Am/B x20210
A7 x02020
A7* 575655
Amaj9 x0x657
A* x0x655
E 022100
Alright there aren't any good tabs for this song anywhere, so here's mine.
When I play along with the song it sounds pretty good, so here goes.
Alright, so there's 2 ways you to play the intro, play whichever
sounds better to you. The only difference is the infamous first
3 notes which most tabs screw up. If you're having difficulty
understanding what's happening in V#1, it's a microtonal bend
(half-a-half-tone, so halfway between fret 3 and 4), then unbend
and pull-off to 1.
All d's and u's are just suggestions and are just how I play it.
Intro riff:
Version #1
 
 --0------------0----------|
 --3b3.5br3p1---1----------|
 -------------2-------0----|
 -----------------0h2---3--|
 --------------------------|
 --------------------------|

Version #2
 
 --0-------0----------|
 --4p3p1---1----------|
 --------2-------0----|
 ------------0h2---3--|
 ---------------------|
 ---------------------|

[Fmaj7]  
[d] [u] [u] [d] [u] [d] [u] [d] [u] [d] [u] [d] [d]  
 
 --0-----0--0-0-----0--0--0-0-0--------------------------------|
 --3/4/5-5--5-5/4/3-1--1--1-1-1--------------------------------|
 --0-----0--0-0-----0--0--0-0-0------------strum-C/G chord...--|
 --3/4/5-5--5-5/4/3-2--2--2-2-2--------(2)---------------------|
 -------------------3--3--3-3-3--------(3)---------------------|
 -------------------3--3--3-3-3-0-0-1h2-3----------------------|

*Play intro riff*
[Fmaj7]  
[d] [u] [d] [d] [u] [d]  
 
 -----------1-1-1-----1-1-1--------|
 -----------3-3-3-----3-3-3--------|
 -----------2-2-2-----0-0-0--------|
 --3--2--0--0-0-0-0h2-2-2-2-1p0----|
 -------------------------------3~-|
 ----------------------------------|

Am, Am/B, Fmaj7*
Verse:
Fmaj7*, C/G
I never really had a problem 'cause of lea-ving
C/G riff:
 
 ---------|
 ---------|
 ---------|
 ---------|
 ----2-3--|
 --3------|

[C/G]  
C/G to Am riff (play while strumming):
 
 --------|
 --------|
 --------|
 --------|

--3~-2~-|
 
 --------|

Am, Am/B, Fmaj7*
But everything reminds me of her
C/G C/G riff, C/G
This evening
*Play intro riff*
Fmaj7*, C/G
So if I seem a little out of it, sorry
[-----]  
[-----]  
[-----]  
[-----]  
[--2--]  
[-----]  
A7, A7*, Amaj9, A*
Fmaj7, Dm
Why should I lie?
Am, Am/B, Fmaj7
Everything reminds me of her
D, Fmaj7
[u] [d] [u] [u]  
 
 ------------0-0----0-----0--0--|
 ------------1-1----3/4/5-5--5--|
 --2p0-------2-2----0-----0--0--|
 ------3p2p0-3-3----3/4/5-5--5--|
 ------------3-3----------------|
 -------------------------------|

[C/G]  
 
 ---------|
 ---------|
 ---------|
 ---------|
 ----3-2--|
 --3------|

A7, A7*, Amaj9, A*
Fmaj7*, C/G, C/G riff
The spin of the earth impaled the silhouette of the sun on the steeple
C/G to Am riff
Am, Am/B, Fmaj7* C/G, C/G riff
And I gotta hear the same sermon all ti-ime now from you people
*Play intro riff*
[Fmaj7]Why are you staring into outer space, [C/G]crying?
[-----]  
[-----]  
[-----]  
[-----]  
[--2--]  
[-----]  
A7, A7*, Amaj9, A*, Fmaj7, Dm
Just because you came across it and lost it
Am, Am/B, Fmaj7
Everything reminds me of her
 
 -----------------|
 -----------------|
 --2p0------------|
 ------3-2-0------|
 ------------3p2--|
 -----------------|

Am, Am/B, D7, E
Everything reminds me of her
Fmaj7*, Am/B, Fmaj7
Everything reminds me of her
[u] [d] [u] [u]  
 
 ------------0-0----0-----0--0--|
 ------------1-1----3/4/5-5--5--|
 --2p0-------2-2----0-----0--0--|
 ------3p2p0-3-3----3/4/5-5--5--|
 ------------3-3----------------|
 -------------------------------|

[C/G]  
 
 ---------|
 ---------|
 ---------|
 ---------|
 ----3-2--|
 --3------|

A7, A7*, Amaj9, A*
[Fmaj7]  
 
 -------------|
 -------------|
 --2p0--------|
 ------3p2p0--|
 -------------|
 -------------|

[Dm]  
 
 ------------------------0~--||
 -----------------------1~---||
 --2~p0----------------2~----||
 -------3p2p0---------2~-----||
 -------------3p2p0--0~------||
 ----------------------------||

All corrections, comments, ratings appreciated. Thanks

Important: The song above is NOT stored on the Chordie server. The original song is hosted at www.azchords.com. Chordie works as a search engine and provides on-the-fly formatting. Chordie does not index songs against artists'/composers' will. To remove this song please click here.

Text color:
Chord color:
Chord grids: 
Font size:    
Page size: 

C/G Dm Fmaj7
Rate #1 of 5 versions

Login - add to songbook

SHARE PAGE  



You need to log in to post comments