Guitar Tabs, Chords and Lyrics
Server problems seems to be fixed. Chordie has been experiencing problems with songs disappearing. These issues now seems to be fixed, but still verifying the fix. If you find anything strange, please email admin@chordie.com.


Rose Parade   Elliott Smith

 
 |-3-2-x-0---0-x-3---2---0-3-3-3-3-|-3---3---3-3-3-3---3---3---3-3-3-|
 |-3-3-x-2---2-x-0---0---0-0-3-3-3-|-3---3---3-3-3-3---2---0---3-3-3-|
 |-2-2-x-2---2-x-1---1---0-0-0-0-0-|-0---0---0-0-0-0---0---0---2-2-2-|
 |-------2---2-x-2---2---0-0-0-0-0-|-0---0---0-0-0-0---0---------0-0-|
 |---------------2---2---2-2-2-2-2-|-x---x---x-x-x---------------x---|
 |-----------------------3-3-3-3-3-|-3---3---3---3---------------3---|

 


 


 ^ ^ ^ ^ ^ ^ ^ ^ ^ ^ ^ ^ ^ ^ ^ ^


 

 
 |-2-3-x-0---0-x-3---2---0-3-3-3-3-|-3---3---3-3-3-3---3---3---3-3-3-|
 |-3-3-x-2---2-x-0---0---0-0-3-3-3-|-3---3---3-3-3-3---2---0---3-3-3-|
 |-2-2-x-2---2-x-1---1---0-0-0-0-0-|-0---0---0-0-0-0---0---0---2-2-2-|
 |-------2---2-x-2---2---0-0-0-0-0-|-0---0---0-0-0-0---0---------0-0-|
 |---------------2---2---2-2-2-2-2-|-x---x---x-x-x---------------x---|
 |-----------------------3-3-3-3-3-|-3---3---3---3---------------3---|

 


 


 [Verse 1] 


 


 They asked me to come down and watch the parade


 ^ ^ ^ ^ ^ ^ ^ ^ ^ ^ ^ ^ ^ ^ ^ ^


 

 
 |-3-2-x-0---0-x-3---2---0-3-3-3-3-|-3---3---3-3-3-3---3---3---3-3-3-|
 |-3-3-x-2---2-x-0---0---0-0-3-3-3-|-3---3---3-3-3-3---2---0---3-3-3-|
 |-2-2-x-2---2-x-1---1---0-0-0-0-0-|-0---0---0-0-0-0---0---0---2-2-2-|
 |-------2---2-x-2---2---0-0-0-0-0-|-0---0---0-0-0-0---0---------0-0-|
 |---------------2---2---2-2-2-2-2-|-x---x---x-x-x---------------x---|
 |-----------------------3-3-3-3-3-|-3---3---3---3---------------3---|

 


 


 And march down the street like the duracell bunny


 ^ ^ ^ ^ ^ ^ ^ ^ ^ ^ ^ ^ ^ ^ ^ ^


 

 
 |-2-3-x-0---0-x-3---2---0-3-3-3-3-|-3---3---3-3-3-3---3---3---3-3-3-|
 |-3-3-x-2---2-x-0---0---0-0-3-3-3-|-3---3---3-3-3-3---2---0---3-3-3-|
 |-2-2-x-2---2-x-1---1---0-0-0-0-0-|-0---0---0-0-0-0---0---0---2-2-2-|
 |-------2---2-x-2---2---0-0-0-0-0-|-0---0---0-0-0-0---0---------0-0-|
 |---------------2---2---2-2-2-2-2-|-x---x---x-x-x---------------x---|
 |-----------------------3-3-3-3-3-|-3---3---3---3---------------3---|

 


 


 With a wink and a wave from the cavalcade


 ^ ^ ^ ^ ^ ^ ^ ^ ^ ^ ^ ^ ^ ^ ^ ^


 

 
 |-3-2-x-0---0-x-3---2---0-3-3-3-3-|-3---3---3-3-3-3---3---3---3-3-3-|
 |-3-3-x-2---2-x-0---0---0-0-3-3-3-|-3---3---3-3-3-3---2---0---3-3-3-|
 |-2-2-x-2---2-x-1---1---0-0-0-0-0-|-0---0---0-0-0-0---0---0---2-2-2-|
 |-------2---2-x-2---2---0-0-0-0-0-|-0---0---0-0-0-0---0---------0-0-|
 |---------------2---2---2-2-2-2-2-|-x---x---x-x-x---------------x---|
 |-----------------------3-3-3-3-3-|-3---3---3---3---------------3---|

 


 


 Throwing out candy that looks like money


 ^ ^ ^ ^ ^ ^ ^ ^ ^ ^ ^ ^ ^ ^ ^ ^


 

 
 |-2-3-x-0---0-x-3---2---0-3-3-3-3-|-3---3---3-3-3-3---3---3---3-3-3-|
 |-3-3-x-2---2-x-0---0---0-0-3-3-3-|-3---3---3-3-3-3---2---0---3-3-3-|
 |-2-2-x-2---2-x-1---1---0-0-0-0-0-|-0---0---0-0-0-0---0---0---2-2-2-|
 |-------2---2-x-2---2---0-0-0-0-0-|-0---0---0-0-0-0---0---------0-0-|
 |---------------2---2---2-2-2-2-2-|-x---x---x-x-x---------------x---|
 |-----------------------3-3-3-3-3-|-3---3---3---3---------------3---|

 


 


 


 To people passing by who all seemed to be going the other way


 ^ ^ ^ ^ ^ ^ ^ ^ ^ ^ ^ ^ ^ ^ ^ ^


 

 
 |-2---0-0-0-0---0---0-0---0---0-0-|-0---0---0-0---0---0-0-0-0-0-0-0-|
 |-2---2-2-3-5---3---3-3---2---2-2-|-0---0---0-0---0---3-3-3-3-3-0-3-|
 |-3---3-3-4-4---4---4-4---2---2-2-|-4---4---4-4---4---3-3-3-3-3-3-3-|
 |-4-----------------0-x---2---2-2-|-2---2---2-2---2---2-2-2-2-2-2-2-|
 |-4-------------------2---0---0-0-|-x---x---x-x---x---0-0-0-0-0-0-0-|
 |-2-----------------------0---0-0-|-2---2---2-2---2-----------------|

 


 


 [verse 2] - (same as verse 1)


 


 Said won't you follow me down to the rose parade?


 


 Tripped over a dog in a choke chain collar


 


 People were shouting and pushing and saying


 


 When I traded a smoke for a food stamp dollar


 


 A ridiculous marching band started playing


 


 And got me singing along to some half-hearted victory song


 


 


 [Cborus] 


 


 Won't you follow me down to the rose parade?


 ^ ^ ^ ^ ^ ^ ^ ^ ^ ^ ^ ^ ^ ^ ^ ^


 

 
 |-3-2-x-0---0-x-3---2---0-3-3-3-3-|-3---3---3-3-3-3---3---3---3-3-3-|
 |-3-3-x-2---2-x-0---0---0-0-3-3-3-|-3---3---3-3-3-3---2---0---3-3-3-|
 |-2-2-x-2---2-x-1---1---0-0-0-0-0-|-0---0---0-0-0-0---0---0---2-2-2-|
 |-------2---2-x-2---2---0-0-0-0-0-|-0---0---0-0-0-0---0---------0-0-|
 |---------------2---2---2-2-2-2-2-|-x---x---x-x-x---------------x---|
 |-----------------------3-3-3-3-3-|-3---3---3---3---------------3---|

 


 


 Won't you follow me down to the rose parade?


 ^ ^ ^ ^ ^ ^ ^ ^ ^ ^ ^ ^ ^ ^ ^ ^


 

 
 |-3-2-x-0---0-x-3---2---0-3-3-3-3-|-3---3---3-3-3-3---3---3---3-3-3-|
 |-3-3-x-2---2-x-0---0---0-0-3-3-3-|-3---3---3-3-3-3---2---0---3-3-3-|
 |-2-2-x-2---2-x-1---1---0-0-0-0-0-|-0---0---0-0-0-0---0---0---2-2-2-|
 |-------2---2-x-2---2---0-0-0-0-0-|-0---0---0-0-0-0---0---------0-0-|
 |---------------2---2---2-2-2-2-2-|-x---x---x-x-x---------------x---|
 |-----------------------3-3-3-3-3-|-3---3---3---3---------------3---|

 


 


 Won't you follow me down to the rose parade?


 ^ ^ ^ ^ ^ ^ ^ ^ ^ ^ ^ ^ ^ ^


 

 
 |-2-2-x-2---2-x-0---0---|-0---0---0-0---0---0-0-0-0-0-0-0-|
 |-2-2-x-3---3-x-2---2---|-0---0---0-0---0---3-3-3-3-3-0-3-|
 |-3-3-x-4---4-x-2---2---|-4---4---4-4---4---3-3-3-3-3-3-3-|
 |-4-4-x-4---4-x-2---2---|-2---2---2-2---2---2-2-2-2-2-2-2-|
 |-4-4-x-2---2-x-0---0---|-x---x---x-x---x---0-0-0-0-0-0-0-|
 |-2-2-x-2---2-x-0---0---|-2---2---2-2---2-----------------|


Important: The song above is NOT stored on the Chordie server. The original song is hosted at www.azchords.com. Chordie works as a search engine and provides on-the-fly formatting. Chordie does not index songs against artists'/composers' will. To remove this song please click here.

This song is displayed as text-only. Transposing and tuning is only available for chordpro-songs.
Rate #7 of 7 versions

Jango Player

Login - add to songbook

SHARE PAGE  




You need to log in to post comments