Guitar Tabs, Chords and Lyrics
Major upgrade!! After one year development the new version of Chordie is now online! Please give feedback.


Son of Sam  Elliott Smith

I took a few liberties on the intro, I added a few notes and took out other notes that
somewhat half plays. The 6x he plays very briefly and doesn't sound quite right, that's
theres an X. Hope this is better.
Intro: Part I Part II
 
 e|------5--5----------------|-------5--5-------------------------------------|
 B|--5-8------8-5---5--------|--5--8------8-7---7------7-------7--------------|
 G|-------------------7-5----|----------------7---7--7---6x---4---4-----------|
 D|-----------------------7--|------------------------------------------------|
 A|--------------------------|------------------------------------------------|
 E|--------------------------|------------------------------------------------|

Part II continued
 
 e|---------------------------------------------------------------------------|
 B|--5---5-5---5-----5------------5-------------------------------------------|
 G|----7-----7---7-------4-5--5-7---7--5-------------4------------------------|
 D|--------------------7------------------7-6--6-6-7---7----------------------|
 A|---------------------------------------------------------------------------|
 E|---------------------------------------------------------------------------|

[A]something's happening, don'[Am]t speak to soon
[D]i told the boss off a[F]nd made my move
got no [E]where to go
son of [Am]sam, son of a [E]shining path,[F] the clouded [G]mind[B] [C]
[Am]couple [E]killer [F]each and every tim[G]e[B] [C]
Intro: Part I
[A]i'm not uncomfortable[Am], feeling weird
[D]long we live options d[F]isappear
but i know [E]what to do
son of [Am]sam, son of a [E]doctor's touch,[F] a nurse's [G]love[B] [C]
[Am]acting [E]under [F]orders from a[G]bove[B] [C]
[A] [Am] [D] [F]  
[A]king for a[Am] day[D] [F] [G]
[A] [Am] [D] [F] [E]  
 
 solo: e|----------------------------------------------------------|
 B|----------------------------------------------------------|
 G|--9-7-5-------9-7-5---7-5-7-9--7-5---5--------------9-7-5-|
 D|--------7-7------------------------7---7777-6666----------|
 A|----------------------------------------------------------|
 E|----------------------------------------------------------|

son of [Am]sam, son of a [E]shining path, t[F]he clouded [G]mind[B] [C]
[Am]couple [E]killer [F]running out of tim[G]e[B] [C]
Intro: Part I and II
[Am]shiva opens her a[E]rms now
to make [D]sure i don't get too [F]far
i may [E]talk in my sleep tonight c[Am]ause i don't know what i am
[D]i'm a little like you, [F]more like [E]son of [Am]sam[F] [E] [Am]
There it is for guitar. That should me more then enough to be able to play and sing it

Important: The song above is NOT stored on the Chordie server. The original song is hosted at www.azchords.com. Chordie works as a search engine and provides on-the-fly formatting. Chordie does not index songs against artists'/composers' will. To remove this song please click here.

Text color:
Chord color:
Chord grids: 
Font size:    
Page size: 

A Am B C D E F G
Rate #1 of 9 versions

Jango Player

Login - add to songbook

SHARE PAGE  



You need to log in to post comments