Guitar Tabs, Chords and Lyrics
Major upgrade!! After one year development the new version of Chordie is now online! Please give feedback.


Sweet Adeline  Elliott Smith

Intro/Main riff
 
 e|------------------------------------------0-----2----|
 B|------------------------------------------1-----3----|
 G|----0--0--0--0--0--0--0--0---0----0--0----0-----2----|
 D|--5--4--2--0--3--2--0------1--0-----------2---0------|
 A|-----------------------3---------3--1--3-------------|
 E|-----------------------------------------------------|

Verse riff:
[Bb] [Eb] [D] [G] [G7]  
 
 e|--------------------------------------------3--3--1---|
 B|--------------------------------------------0--0--0---|
 G|--3--3--0--0----3--3---0--0---5--3--7--7--- 0--0--0---|
 D|--3--3--3--3----1--1---1--1---0--0--0--0----0--0--3---|
 A|--------------------------------------------2--2--2---|
 E|--------------------------------------------3--3--3---|

Verse:
[Bb]Cut this [Eb]picture [D]into you a[G]nd [G7]me,
[Bb]Burn it [Eb]backwards [D]kill this histo[G]ry,[G7]
[Bb]Make it [Eb]over [D]make it stay away[G],[G7]
Bb Eb D (main riff)
Or hate'll sing the ending that love started to say...
Verse 2:
There's a [Bb]kid a floor [Eb]below me saying[D] brother can you s[G]pare?[G7]
[Bb]Sunshine for a [Eb]brother old man [D]winter's in th[G]e a[G7]ir,
[Bb]Walked me up a [Eb]story [D]asking how you [G]are[G7]
Bb Eb D (main riff)
Told me not to worry you were just a shooting star...
Chorus 1:
Sweet [Eb]Adeline[Bb] [F] [G#] [C#] [E]
Sweet [Eb]Adeline[Bb] [F] [G#] [C#] [E]
My cle[Eb]mentine[Bb] [F] [G#] [C#] [E]
Eb Bb F G# B D (main riff)
Sweet Adeline
Verse 3:
Its a [Bb]picture perfect [Eb]evening and i'm [D]staring down the [G]sun,[G7]
[Bb]Fully l[Eb]oaded, [D]deaf and dumb and [G]don[G7]e,
[Bb]Waiting for [Eb]sedation to [D]disconnect my [G]hea[G7]d,
[Bb]Or any situ[Eb]ation where I'm [D]better off than [G]dea[G7]d......

Important: The song above is NOT stored on the Chordie server. The original song is hosted at www.azchords.com. Chordie works as a search engine and provides on-the-fly formatting. Chordie does not index songs against artists'/composers' will. To remove this song please click here.

Text color:
Chord color:
Chord grids: 
Font size:    
Page size: 

Bb C# D E Eb F G G# G7
Rate #1 of 5 versions

Jango Player

Login - add to songbook

SHARE PAGE  




You need to log in to post comments