Guitar Tabs, Chords and Lyrics
Major upgrade!! After one year development the new version of Chordie is now online! Please give feedback.


The Last Hour  Elliott Smith

standard D tuning
A xx7655 A/G# xx6655
A/G xx5655 Bm* 799777
D* t977t7 G 355433
F# 244322 Bm x24432
Bsus4 x04252 Bm7 x04232
E 022100 G* 320003
Gm 355333 A* x02220
Dsus2 x00230 D x00232
Dsus4 x00233 Db5 x00132
Bm6 xx4132 A7 575655
(Dmaj7 Picking)
 
 |----------7-9-|-----9---7----|------------7-|----------------|
 |---7-9-10-----|---7-------10-|-9-7-9-9-10---|-10-7-10-10-7---|
 |-7------------|-7-----7------|-7------------|--7-------------|
 |--------------|--------------|--------------|--------------9-|
 |--------------|--------------|--------------|----------------|
 |--------------|--------------|--------------|----------------|

here's the army that you mowed to the ground
(Bm Picking)
 
 |------------7-|-9-----9-7----|------------7-|------------|
 |-----7-9-10---|-----7-----10-|-9---9---10---|-10---10-10-|
 |---7----------|---7----------|---7---7------|----7-------|
 |-9------------|-9------------|-9------------|--9---------|
 |--------------|--------------|--------------|------------|
 |--------------|--------------|--------------|------------|

and the bodies you left lying around
A A/G# A/G Bm* D*
talking it out the last hour
A G F# Bm* D*
i'm through trying now it's a big relief
[A]i'll be[G] staying d[F#]own
Bm Bsus4/A Bm7/A E G*
where no-one else gonna give me grief
Gm A*(x02220)
mess me around
just make it over[D] [Dsus2] [Dsus4] [D] [F#]
[D]your opinion was the [Db5]law of the [D]land
[Bm]a single thing that i couldn't a[Bm6]lways under[Bm]stand
A A/G# A/G Bm* D*
i lived it out from hour to hour
A G F# Bm* D*
the only thing that never really changed
you [A]ran me [G]all ar[F#]ound
Bm Bsus4/A Bm7 E G*
and dragged me down at the end of the day
Gm A*
don't keep me around
just make it over[D] [Dsus2] [Dsus4] [D] [F#]
Solo:
[Bm] [Bm6/A#] [Bm/A] [Bm/G]  
 
 |--------------------|--------------------|--------------|--------------|
 |--------------------|--------------------|--------------|--------------|
 |------7--9-9b10r(9)-|-(9)-----9b10r(9)-7-|----------7-9-|----------7-9-|
 |--------------------|--------------------|-9------9-----|-9------9-----|
 |--------------------|--------------------|--------------|--------------|
 |--------------------|--------------------|--------------|--------------|

[G] [F#] [Bm] [D]  
 
 |-------------|--------------|-7-------------|---------------------|
 |-------------|--------------|-7------7---10-|-(10)----------------|
 |-------6-7---|--------------|--------7----7-|--(7)----------------|
 |-9---9-----9-|-8------------|---------------|---------------------|
 |-------------|--------------|---------------|---------------------|
 |-------------|--------------|---------------|---------------------|

[A] [G]  
 
 |-----------------------|------------------------|
 |-10------10b11r(10)----|-10------10b11r(10)-----|
 |-----------------------|------------------------|
 |-----------------------|------------------------|
 |-----------------------|------------------------|
 |-----------------------|------------------------|

[F#] [Bm]  
 
 |--------------|-----------7-------|-------------------|
 |-7------------|-(7)-----7---10b12-|-(10)-------10--7--|
 |--------------|-------------------|-------------------|
 |--------------|-------------------|-------------------|
 |--------------|-------------------|-------------------|
 |--------------|-------------------|-------------------|

[Bm7/A] [E7] [E]  
 
 |-10------(10)b12r==(10)-|-7------------|-(7)-----5s7-10-|
 |------------------------|--------------|----------------|
 |------------------------|--------------|----------------|
 |------------------------|--------------|----------------|
 |------------------------|--------------|----------------|
 |------------------------|--------------|----------------|

[Gm]  
 
 |-10-------(10)-12-|-12b13r(12)-10-10-----|
 |------------------|----------------------|
 |------------------|----------------------|
 |------------------|----------------------|
 |------------------|----------------------|
 |------------------|----------------------|

[A7] [D] [Dsus2]  
 
 |------------------|-/14-------12p=10-|-10------------|
 |-14p12s10-10------|------------------|---------------|
 |---------------11-|------------------|---------------|
 |------------------|------------------|---------------|
 |------------------|------------------|---------------|
 |------------------|------------------|---------------|

[Dsus4] [D] [F#]  
 
 |-(10)-----------|-(10)--------------|--------------||
 |----------------|------12-10--------|--------------||
 |----------------|------------11-9-7-|-6------------||
 |----------------|-------------------|--------------||
 |----------------|-------------------|--------------||
 |----------------|-------------------|--------------||

[D]i've been thinking of the [Db5]things that i mi[D]ssed
[Bm]situations that i [Bm6]passed up for[Bm] this
A A/G# A/G Bm* D*
one way love i took for ours
A G F# Bm* D*
i'm through trying now it's a big relief
[A]i'll be [G]staying [F#]down
Bm Bsus4/A Bm7 E G*
i wasn't good at being a theif
[Gm]more like a clow[A]n[A7]
D G/B(x20030) Bb6(x1303x) A7sus2(x0203x) D5(xx023x)
make it over
tab arrangement by alexander rex

Important: The song above is NOT stored on the Chordie server. The original song is hosted at www.azchords.com. Chordie works as a search engine and provides on-the-fly formatting. Chordie does not index songs against artists'/composers' will. To remove this song please click here.

Text color:
Chord color:
Chord grids: 
Font size:    
Page size: 

A A7 Bm Bm/A Bm6 Bm7/A D Db5 Dsus2 Dsus4 E E7 F# G Gm
Rate #1 of 1 versions

Jango Player

Login - add to songbook

SHARE PAGE  



You need to log in to post comments