Guitar Tabs, Chords and Lyrics
Server problems seems to be fixed. Chordie has been experiencing problems with songs disappearing. These issues now seems to be fixed, but still verifying the fix. If you find anything strange, please email admin@chordie.com.


Wait for You  Elliott Yamin

Song Name:Wait For You
Tuning:Standard
this is my tab for wait for you i tabbed it on ear hope you like it no one had it yet
just give the chords so here it is the piano on guitar hope u like it and rate it plzzz
to katherine... i can wait i guess..:)
Intro:
(listn to the song so you can knoe how many times to repeat)
 
 e|----------------------------------------------------------------------|
 B|----------------------------------------------------------------------|
 G|---5h4---0-------2----------------------------------------------------|
 D|-------------------------5--------------------------------------------|
 A|--------------3--------5----------7-----------------------------------|
 E|------------1--------3------------------------------------------------|

[F] [G] [Am] 
ending of the intro...
 
 e|--------------3---------------------------------------------------------|
 B|---------------------1h3------------------------------------------------|
 G|-------4h5-----------2-------4------------------------------------------|
 D|-----------------------------5------------------------------------------|
 A|------------------------------------------------------------------------|
 E|-----------------------------3------------------------------------------|

Verse:
repeat this all the way to the verse
 
 e|-----------------------------------------------------------------------|
 B|-----------------------------------------------------------------------|
 G|-----------------------------------------------------------------------|
 D|--------3--------5--------7-----------3-------5-----------7------------|
 A|-----3----3----5--5-----7---(7)-----3---3----5---5------7---(7)--------|
 E|---1---------3--------5-----------1--------3----------5----------------|

[F] [G] [Am] [F] [G] [Am] 
I never felt nothing in the world like this before
Now I'm missing you
& I'm wishing that you would come back through my door
Why did you have to go? You could have let me know
So now I'm all alone,
Girl you could have stayed
but you wouldn't give me a chance
With you not around it's a little bit more then I can stand
And all my tears they keep running down my face
Why did you turn away?
Bridge:(pluck the 8 four times)
 
 e|------------------------------------------------------------------------|
 B|--------8(4x)-----------------------------------------------------------|
 G|---5h7----------------5h7-----3-3-3-3h5/7-------------------------------|
 D|------------------------------------------------------------------------|
 A|------------------------------------------------------------------------|
 E|------------------------------------------------------------------------|
 e|--------------------------------------------------------------------|
 B|--------8(4x)--------------8(4x)------------------------------------|
 G|---5h7----------------5h7-------5h7p5-3---5h7--3-3-3-3h5/7----------|
 D|--------------------------------------------------------------------|
 A|--------------------------------------------------------------------|
 E|--------------------------------------------------------------------|
 e|------------------------------------|
 B|------------------------------------|
 G|-----9(4x)---5-5-----7-7------------|
 D|------------------------------------|
 A|------------------------------------|
 E|------------------------------------|

So why does your pride make you run and hide?
Are you that afraid of me?
But I know it's a lie what you keep inside
This is not how you want it to be
Chorus:
 
 e|----------------------------------------------------------------------|
 B|----------------------------------------------------------------------|
 G|---5h4---0-------2----------------------------------------------------|
 D|-------------------------5--------------------------------------------|
 A|--------------3--------5----------7-----------------------------------|
 E|------------1--------3------------------------------------------------|
 e|--------------3---------------------------------------------------------|
 B|---------------------1h3------------------------------------------------|
 G|-------4h5-----------2-------4------------------------------------------|
 D|-----------------------------5------------------------------------------|
 A|------------------------------------------------------------------------|
 E|-----------------------------3------------------------------------------|

So baby I will wait for you
Cause I don't know what else I can do
Don't tell me I ran out of time
If it takes the rest of my life
Baby I will wait for you
If you think I'm fine it just ain't true
I really need you in my life
No matter what I have to do I'll wait for you..
Verse 2:
Bridge:
repeat all of that all through the song thnks hope u like it ........:)

Important: The song above is NOT stored on the Chordie server. The original song is hosted at www.azchords.com. Chordie works as a search engine and provides on-the-fly formatting. Chordie does not index songs against artists'/composers' will. To remove this song please click here.

Text color:
Chord color:
Chord grids: 
Font size:    
Page size: 

Am F G
Rate #1 of 3 versions

Jango Player

Login - add to songbook

SHARE PAGE  



You need to log in to post comments