Guitar Tabs, Chords and Lyrics
Major upgrade!! After one year development the new version of Chordie is now online! Please give feedback.


Blue Suede Shoes  Elvis Presley

Gtr I (E A D G B E) - 'Scotty Moore - Electric Guitar'
Verse 1 & 4
Q=192
$
[A]  
[4/4] Gtr I
W E E Q E E Q E E Q E E Q Q Q Q Q
 
 |----------|---------------|---------------|--------------|
 |----------|-2--------2-2--|-2--------2-2--|-2-----2------|
 |----------|-2--------2-2--|-2--------2-2--|-2-----2------|
 |----------|-2--------2-2--|-2--------2-2--|-2-----2------|
 |----------|-0--------0-0--|-0--------0-0--|-0-----0------|
 |----------|---------------|---------------|--------------|

Q Q E. S Q Q [Dadd9]Q +E E Q E E E E +Q Q Q [Aadd9]Q +E E Q
 
 |---------------|----------------|-----------------|----5--(5)-5----|
 |-2--2--2--2-2--|----5--(5)-5----|-5-----5-(5)--5--|----0--(0)-0----|
 |-2--2--2--2-2--|----5--(5)-5----|-5-----5-(5)--5--|----6--(6)-6----|
 |-2--2--2--2-2--|----4--(4)-4----|-4-----4-(4)--4--|----7--(7)-7----|
 |-0--0--0--0-0--|----5--(5)-5----|-5-----5-(5)--5--|----------------|
 |---------------|----------------|-----------------|----------------|

To Coda
E E E E +Q Q Q [Eadd9]Q +E E Q E E E E +Q Q Q [A]Q +E E Q
 
 |-5-----5-(5)--5--|----------------|-----------------|----------------|
 |-0-----0-(0)--0--|----7--(7)-7----|-7-----7-(7)--7--|----------------|
 |-6-----6-(6)--6--|----7--(7)-7----|-7-----7-(7)--7--|----6--(6)-6----|
 |-7-----7-(7)--7--|----6--(6)-6----|-6-----6-(6)--6--|----7--(7)-7----|
 |-----------------|----7--(7)-7----|-7-----7-(7)--7--|----7--(7)-7----|
 |-----------------|----------------|-----------------|----5--(5)-5----|

Verse 2 & 3
E E E E +Q Q E E Q E E Q E E Q E E Q E E Q E E Q
 
 |-----------------||----------------|---------------|---------------|
 |-----------------||o---------------|---------------|---------------|
 |-6-----6-(6)--6--||--6--------6-6--|-6--------6-6--|-6--------6-6--|
 |-7-----7-(7)--7--||--7--------7-7--|-7--------7-7--|-7--------7-7--|
 |-7-----7-(7)--7--||o-7--------7-7--|-7--------7-7--|-7--------7-7--|
 |-5-----5-(5)--5--||--5--------5-5--|-5--------5-5--|-5--------5-5--|

E E Q E E Q E E Q E E Q E E Q E E Q Q Q Q Q
 
 |---------------|---------------|---------------|-------------|
 |---------------|---------------|---------------|-------------|
 |-6--------6-6--|-6--------6-6--|-6--------6-6--|-6-----6-----|
 |-7--------7-7--|-7--------7-7--|-7--------7-7--|-7-----7-----|
 |-7--------7-7--|-7--------7-7--|-7--------7-7--|-7-----7-----|
 |-5--------5-5--|-5--------5-5--|-5--------5-5--|-5-----5-----|

Q Q E. S Q Q [Dadd9]Q +E E Q E E E E +Q Q Q [Aadd9]Q +E E Q
 
 |---------------|----------------|-----------------|----5--(5)-5----|
 |---------------|----5--(5)-5----|-5-----5-(5)--5--|----0--(0)-0----|
 |-6--6--6--6-6--|----5--(5)-5----|-5-----5-(5)--5--|----6--(6)-6----|
 |-7--7--7--7-7--|----4--(4)-4----|-4-----4-(4)--4--|----7--(7)-7----|
 |-7--7--7--7-7--|----5--(5)-5----|-5-----5-(5)--5--|----------------|
 |-5--5--5--5-5--|----------------|-----------------|----------------|

E E E E +Q Q Q [Eadd9]Q +E E Q E E E E +Q Q Q [A]Q +E E Q
 
 |-5-----5-(5)--5--|----------------|-----------------|----------------|
 |-0-----0-(0)--0--|----7--(7)-7----|-7-----7-(7)--7--|----------------|
 |-6-----6-(6)--6--|----7--(7)-7----|-7-----7-(7)--7--|----6--(6)-6----|
 |-7-----7-(7)--7--|----6--(6)-6----|-6-----6-(6)--6--|----7--(7)-7----|
 |-----------------|----7--(7)-7----|-7-----7-(7)--7--|----7--(7)-7----|
 |-----------------|----------------|-----------------|----5--(5)-5----|

Guitar Solo 1
1.
E E E E +Q Q E E E E E E E E E E E E E E E E E Q E Q E E
 
 |-----------------|-5-5-5-5-5-5-5-5-|-5-5-5-5-5-5-5-5-|-5-8--5--------|
 |-----------------|-5-5-5-5-5-5-5-5-|-5-5-5-5-5-5-5-5-|-5------8--7-5-|
 |-6-----6-(6)--6--|-----------------|-----------------|---------------|
 |-7-----7-(7)--7--|-----------------|-----------------|---------------|
 |-7-----7-(7)--7--|-----------------|-----------------|---------------|
 |-5-----5-(5)--5--|-----------------|-----------------|---------------|

[D7] |-3-| |-3-|[A]
E E E E E E E E Q E E E E Q Q Q Q Q Q Q E E E E E E E E
 
 |-----------------|------5--------|-------------|---------------5-|
 |---5-------------|-7--7---8-7-5--|-5---5---5---|-----------5-7---|
 |-7---5-5-------5-|---------------|---7---7---5-|-------5-7-------|
 |---------7-6-7---|---------------|-------------|-7-5-7-----------|
 |-----------------|---------------|-------------|-----------------|
 |-----------------|---------------|-------------|-----------------|

+E E E E E E Q [E7]E E E E +E Q.
 
 |-(5)--------------|------------------|
 |-----8-7-5---5----|------------------|
 |-----------7---5--|-------5-(5)------|
 |------------------|-7-5-7-------7----|
 |------------------|------------------|
 |------------------|------------------|

E E E E +E E Q [A]E S +E. E +E E Q
 
 |------------------|-5-------------8-(8)-5----|
 |------------------|---8b10-(8)b10-8-(8)---8--|
 |-5-----5-(5)------|--------------------------|
 |---7p5-------7----|--------------------------|
 |------------------|--------------------------|
 |------------------|--------------------------|

E Q E +E E Q
 
 |--------------------||
 |-5-----------------o||
 |---5----------------||
 |------7-(7)-5-7-----||
 |-------------------o||
 |--------------------||

Guitar Solo 2
2.
[A] Q Q E Q E +E E E E +Q Q
 
 |--5\-----5----/5-|-(5)-5-5-8-(8)\-----|
 |--5\-----5----/5-|-(5)---5-8-(8)\-----|
 |--6\-------------|--------------------|
 |-----------------|--------------------|
 |-----------------|--------------------|
 |-----------------|--------------------|

Q Q Q E E E E E E +Q Q [D7]E E E +E Q Q E E E E E E E E
 
 |-5-----5\----5-|-5---5-8-(8)\-----|---5-------------5-----|-8-5-------------|
 |-5-----5\----5-|-5-5-5-8-(8)\-----|-----8b10-(8)b10-------|-7---8-7-5---5---|
 |-------6\------|------------------|-----------------------|-----------7---5-|
 |---------------|------------------|-----------------------|-----------------|
 |---------------|------------------|-----------------------|-----------------|
 |---------------|------------------|-----------------------|-----------------|

[A]E E E E E E E E E E E E E E E E [E7]E E E E +E Q. E E E E E Q E
 
 |-----------------|-5---------------|------------------|----------------|
 |-------------5-7-|---8-7-5---5-----|------------------|-----------5----|
 |-6-------5-7-----|---------7---5-6-|-------5-(5)------|-------5-7----7-|
 |---7-6-7---------|-----------------|-7-6-7-------7----|---5-7----------|
 |-----------------|-----------------|------------------|-7--------------|
 |-----------------|-----------------|------------------|----------------|

D.S. al Coda
[A]  
 
 |---3---| |-3-|

E E E E E E E S +S +Q Q Q Q Q Q
 
 |-------------5-------------|--------8-5--------||
 |---------5-7---8b10-(8)b10-|-(8)b10-7---8-5----||
 |-5---5-7-------------------|----------------5--||
 |---7-----------------------|-------------------||
 |---------------------------|-------------------||
 |---------------------------|-------------------||

Outro
&
[A]E E E E +Q Q Q Q E E Q Q Q E E Q Q Q E E Q
 
 |-5-----5-(5)-----||--------------|--------------|--------------|
 |-5-----5-(5)-----||--------------|--------------|--------------|
 |---6---6-(6)-----||--------------|--------------|--------------|
 |-7---7--------7--||-------2-2----|-------2-2----|-------2-2----|
 |-----------------||-0--4------4--|-0--4------4--|-0--4------4--|
 |-----------------||--------------|--------------|--------------|

Q Q E E Q [D7]Q Q E E Q Q Q E E Q [A] Q Q E E Q
 
 |--------------|--------------|--------------|----------------|
 |--------------|--------------|--------------|----------------|
 |--------------|-------2-2----|-------2-2----|----------------|
 |-------2-2----|-0--4------4--|-0--4------4--|--------2-2-----|
 |-0--4------4--|--------------|--------------|--0--4------4---|
 |--------------|--------------|--------------|----------------|

Q Q E E Q [E7]E Q E E E Q
 
 |--------------|---------------|
 |--------------|---7----7-7----|
 |--------------|---7----7-7----|
 |-------2-2----|---6----6-6----|
 |-0--4------4--|---------------|
 |--------------|---------------|

E Q E E E Q [A]Q E E S S E Q E E E E +H
 
 |---------------|------5----------|----------------*|
 |---7----7-7----|--------8p7-5-7--|-5-----5-(5)----*|
 |---7----7-7----|-----------------|-5-6---6-(6)----*|
 |---6----6-6----|----7------------|-----7-7-(7)----*|
 |---------------|-----------------|-------7-(7)----*|
 |---------------|-----------------|----------------*|


Important: The song above is NOT stored on the Chordie server. The original song is hosted at www.azchords.com. Chordie works as a search engine and provides on-the-fly formatting. Chordie does not index songs against artists'/composers' will. To remove this song please click here.

Text color:
Chord color:
Chord grids: 
Font size:    
Page size: 

A Aadd9 D7 Dadd9 E7 Eadd9
Rate #1 of 11 versions

Login - add to songbook

SHARE PAGE  




You need to log in to post comments