Guitar Tabs, Chords and Lyrics
Server problems seems to be fixed. Chordie has been experiencing problems with songs disappearing. These issues now seems to be fixed, but still verifying the fix. If you find anything strange, please email admin@chordie.com.


I'm Gonna Sit Right Down and Cry (Over You)  Elvis Presley

Gtr I (E A D G B E) - 'Scotty Moore - Electric Guitar'
1st Verse
Q=210(8=s8)
N.C. C
[4/4] Gtr I
W W W E E q q q
 
 |----------|----------|----------|-----3-----3---|
 |----------|----------|----------|---5-5--5--5---|
 |----------|----------|----------|-----5--5--5---|
 |----------|----------|----------|--------5------|
 |----------|----------|----------|---------------|
 |----------|----------|----------|---------------|

E E q q q Q Q. E Q q E E +H Q [G]Q. E Q
 
 |-----3-----3--|----3---------|-3----3-(3)----|----3---------|
 |---5-5--5--5--|----5----3h5--|-5----5-(5)----|----3----3h5--|
 |-----5--5--5--|----5---------|-5----5-(5)----|----4---------|
 |--------5-----|--------------|---------------|--------------|
 |--------------|--------------|---------------|--------------|
 |--------------|--------------|---------------|--------------|

q E E +H Q [C]Q. E Q E E E E +H Q [F7]Q. E Q
 
 |-3----3-(3)----|----8----------|-8-----8-(8)----|----8----------|
 |-3----3-(3)----|----8----8h10--|-8-8---8-(8)----|----8----8h10--|
 |-4----4-(4)----|----9----------|-9---9----------|----8----------|
 |---------------|---------------|----------------|---------------|
 |---------------|---------------|----------------|---------------|
 |---------------|---------------|----------------|---------------|

E E E E +H Q [C]Q. E q Q Q. E q Q H q
 
 |-8-----8-(8)----|----8---------|----3---------|----3-------|
 |-8-8---8-(8)----|----8----8----|----3----3----|----5----5--|
 |-8---8----------|----9------9--|----4------4--|----5----5--|
 |----------------|--------------|--------------|------------|
 |----------------|--------------|--------------|------------|
 |----------------|--------------|--------------|------------|

2nd & 3rd Verses
$
Q Q Q Q Q [C]H q Q [G]H q Q [C]Q. E Q
 
 |-------------||---------3--|---------3--|----3---------|
 |----3--5-----||----5----5--|----3----3--|----5----3h5--|
 |-------5-----||----5-------|----4-------|----5---------|
 |-------------||------------|------------|--------------|
 |-------------||------------|------------|--------------|
 |-------------||------------|------------|--------------|

Q Q. E Q Q Q. E Q Q Q. E Q Q [G]Q. E q
 
 |----3---------|----3---------|----3---------|----3---------|
 |----5----3h5--|----5----3h5--|----5----3h5--|----3----3h5--|
 |----5---------|----5---------|----5---------|----4---------|
 |--------------|--------------|--------------|--------------|
 |--------------|--------------|--------------|--------------|
 |--------------|--------------|--------------|--------------|

Q. E E E Q E [C]E E Q E q E E E Q E q E [F7]E E Q E q
 
 |-3-------------|-------8-------|-------8-------|-------8-------|
 |-3----5---3----|---8------8----|---8------8----|---8------8----|
 |-4-------------|-----9------9--|-----9------9--|-----8------8--|
 |---------------|---------------|---------------|---------------|
 |---------------|---------------|---------------|---------------|
 |---------------|---------------|---------------|---------------|

E E E Q E q E [C]E E Q E q E [G]E E Q E q Q [C] Q.. S q
 
 |-------8-------|-------8-------|-------3-------|-----/8------8--8--||
 |---8------8----|---8------8----|---3------3----|-----/8------8--8--||
 |-----8------8--|-----9------9--|-----4------4--|-----/9------9--9--||
 |---------------|---------------|---------------|----/10-----10-10--||
 |---------------|---------------|---------------|-------------------||
 |---------------|---------------|---------------|-------------------||

Bridge
N.C. F7 C
 
 PM---------|

E E E E q q E E E Q E Q E E E Q E Q E E E Q E Q
 
 |---------------|-8-----8-------|-8-----8-------|-8-----8-------|
 |---------------|---8------8----|---8------8----|---8------8----|
 |---------------|-----8------8--|-----8------8--|-----9------9--|
 |---------------|---------------|---------------|---------------|
 |-3-1---1-0-----|---------------|---------------|---------------|
 |------------3--|---------------|---------------|---------------|

E E E Q E Q E E E Q E Q [D7]E E E Q E Q [G]E E E Q E Q
 
 |-8-----8-------|-8-----8-------|-5-----5-------|-------3-------|
 |---8------8----|---8------8----|---7------7----|---3------3----|
 |-----9------9--|-----9------9--|-----7------7--|-----4------4--|
 |---------------|---------------|---------------|-5-------------|
 |---------------|---------------|---------------|---------------|
 |---------------|---------------|---------------|---------------|

N.C. C F7
 
 PM-------|

Q Q Q Q Q Q. E q E E E Q E q Q Q. E q
 
 |-------------|----8----------|-8------8--------|----8----------|
 |-------------|----8----8-10--|---8-10----8-10--|----8----8-10--|
 |-------------|----9----------|-----------------|----8----------|
 |-5--3--2-----|---------------|-----------------|---------------|
 |----------5--|---------------|-----------------|---------------|
 |-------------|---------------|-----------------|---------------|

Guitar Solo
To Coda
E E E Q E q E [C]E q q q Q q Q q Q [C] H q
 
 |-8------8--------|-----3-----3--|----3-----3--||-----8--------|
 |---8-10----8-10--|---5-5--5--5--|----3--3--3--||-----8----10--|
 |-----------------|-----5--5--5--|----4--4--4--||-----9--------|
 |-----------------|--------5-----|-------------||----10--------|
 |-----------------|--------------|-------------||--------------|
 |-----------------|--------------|-------------||--------------|

[G] [C]  
 
 PM---------|

q q q q q Q. E Q E E E Q E q q Q. E Q
 
 |-8------------|-----8----------|------------------|----8-----------|
 |-8------------|-----8----10----|----8-------8-----|----8----10-----|
 |--------------|-----9----------|------9-10----10--|----9-----------|
 |--------7--9--|-10-------------|------------------|------------10--|
 |----10--------|----------------|-10---------------|----------------|
 |--------------|----------------|------------------|-8--------------|

[G]  
 
 PM---------|

q q q q q Q. E +Q Q. q E Q E E E E q E E
 
 |-8------------|-----8-------------|-8--------8----|---0---0------0-|
 |-8------------|-----8----10-(10)--|-8----10----8--|-3---1---0------|
 |--------------|-----9-------------|---------------|------------2---|
 |--------7--9--|-10----------------|---------------|----------------|
 |----10--------|-------------------|---------------|----------------|
 |--------------|-------------------|---------------|----------------|

q E E E E Q [C]Q Q. E Q Q E Q E Q [F7]Q Q. E Q
 
 |---------------|--------------|-3-------0----|----3---------|
 |------0---0----|----1---------|-1----4-------|----1----1----|
 |-0-------------|----0----0----|-0----0----0--|----2------2--|
 |----3---2---0--|-----------2--|--------------|--------------|
 |---------------|-3------------|----3---------|--------------|
 |---------------|--------------|--------------|-1------------|

q Q. E Q [C]E E E Q E Q [G]E E E Q E Q [C]E E E E E E E E
 
 |--------------|---------------|-------3-------|-----------------|
 |-4--4---------|---1------1----|----------0----|-----------------|
 |-2--2----2----|-------0-------|---0--------0--|---0---0---0---0-|
 |-3---------3--|-----2------2--|-----3---------|-----------------|
 |--------------|-3-------------|---------------|-3-------0---2---|
 |--------------|---------------|-3-------------|-----3-----------|

D.S. al Coda &
E E E E E E Q Q [C]Q Q Q Q H.
 
 |----------------||----8----------|----8-----||
 |----------------||----8--10------|----8-----||
 |---0---0---0----||-----------10--|-9--------||
 |-----1---2------||---------------|----------||
 |-3-----------3--||---------------|----------||
 |----------------||---------------|----------||

Outro
[C]Q Q Q Q [G]W Q [C]Q Q Q Q Q Q Q
 
 ||-----8----------|----------|----8----------|----8------------||
 ||o----8--10------|----------|----8--10------|----8--10-------o||
 ||--9---------10--|-9--------|-----------10--|-9---------10----||
 ||----------------|----------|---------------|-----------------||
 ||o---------------|----------|---------------|----------------o||
 ||----------------|----------|---------------|-----------------||


Important: The song above is NOT stored on the Chordie server. The original song is hosted at www.azchords.com. Chordie works as a search engine and provides on-the-fly formatting. Chordie does not index songs against artists'/composers' will. To remove this song please click here.

Text color:
Chord color:
Chord grids: 
Font size:    
Page size: 

C D7 F7 G
Rate #1 of 2 versions

Login - add to songbook

SHARE PAGE  




You need to log in to post comments