Guitar Tabs, Chords and Lyrics
Server problems seems to be fixed. Chordie has been experiencing problems with songs disappearing. These issues now seems to be fixed, but still verifying the fix. If you find anything strange, please email admin@chordie.com.


Merry Christmas Baby  Elvis Presley

(Blues Tempo)
INTRO:
 
 e|-------------------------------------------------------------------------------|
 B|-------------------------------------------------------------------------------|
 G|------------------------------------------------------9--7---------------------|
 D|---------------7--5---------------4--2-------------0--9--7-----------0--4--2---|
 A|-----------0---7--5-----------0---4--2----0--2--4--------------------0--4--2---|
 E|--0--2--4------------0--2--4--------------------------------0--2--4------------|

SOLO CHORDS: (play these chords, strumming each one time)
 
 e|----- |----- |----- |----- |----- |------ |------ |------
 B|--2-- |--3-- |--5-- |--7-- |--8-- |--10-- |--12-- |--14--
 G|----- |----- |----- |----- |----- |------ |------ |------
 D|--2-- |--4-- |--5-- |--7-- |--9-- |--11-- |--12-- |--14--
 A|----- |----- |----- |----- |----- |------ |------ |------

E|--X--
...and then back to E
TIP: in the song use E7(0221030) play it several times -- down/down/down/...
[E]Merry, Merry Christmas Baby,
[A7]You sure did treat me [E]nice.[E7]
[A7]I said Merry Christmas Baby,
You sure did treat me [E]nice.
Gave me a [B7]diamond ring for Christmas
[A7]Now I'm living in para[E]dise[E7] [A7] [E] [B7] [A7] [E]
[E]Well, I'm feeling mighty fine,
[A7]Got good music on my ra[E]dio.[E7]
[A7]Well, I'm feeling mighty fine,
Got good music on my ra[E]dio.
[B7]Well, I want to kiss you baby
[A7]While you're standing 'neath the mistle[E]toe.[E7]
(SOLO) and then
[E] [B7] [A7] [E]  
[E]Merry [A7]Christmas little Baby,
You sure been good to [E]me.
I [B7]haven't had a drink this mornin'
[A7]But I'm all lit up like Christmas [E7]tree.[E] [A] [E]

Important: The song above is NOT stored on the Chordie server. The original song is hosted at www.azchords.com. Chordie works as a search engine and provides on-the-fly formatting. Chordie does not index songs against artists'/composers' will. To remove this song please click here.

Text color:
Chord color:
Chord grids: 
Font size:    
Page size: 

A A7 B7 E E7
Rate #1 of 1 versions

Login - add to songbook

SHARE PAGE  



You need to log in to post comments