Guitar Tabs, Chords and Lyrics
Server problems seems to be fixed. Chordie has been experiencing problems with songs disappearing. These issues now seems to be fixed, but still verifying the fix. If you find anything strange, please email admin@chordie.com.


Mystery Train  Elvis Presley

0 2 2 1 0 0 [E]x 0 2 2 2 0 [A]x 0 2 2 x x [A5] 0 0 2 2 2 0[A/E]
x 2 [B7]1 2 0 x
Gtr I (E A D G B E) - 'Scotty Moore - Electric Guitar'
Gtr II (E A D G B E) - 'Elvis Presley - Acoustic Guitar'
Intro
H=120(8=s8)
[E] [A] [E] [E] 
[4/4] Gtr II (Ac. Gtr.)
W W H E E E E
| | |
[/] [/] [/] 
Gtr I (El. Gtr.)
PM PM PM PM
H E Q E q q e e q 5x q q e e q
 
 |-------------||----------------||---------------|
 |-----------0-||o----0----2----o||----0----2-----|
 |-----------1-||-----1----2-----||----1----2-----|
 |-------------||-----2------2---||----2------2---|
 |------0h2----||o--------------o||---------------|
 |-------------||--0-----0-------||-0-----0-------|

Verses
[E]Q [A]Q E E E E [A5]Q [A]E E +E E E E [A5]Q [A]E E +E E E E [A5]Q [A]E E +E E E E
| | | | | | | | | | | | | | | | | | | | | | | | | | |
[/] [/] [/] [/] [/] [/] [/] [/] [/] [/] [/] [/] [/] [/] [/] [/] [/] [/] [/] [/] [/] [/] [/] [/] [/] [/] [/] 
PM PM
q q e e q Q Q E E Q Q E E E E Q Q Q E E Q
 
 |---------------||-----3------0-----|-3----0----3-----|----3------0------|
 |----0----2-----||o----2------------|-2---------------|----2-------------|
 |----1----2-----||------------------|-----------------|------------------|
 |----2------2---||-----2--------2---|----2--------2---|----2--------2----|
 |---------------||o-0-------0-------|-0-------0-------|-0-------0--------|
 |-0-----0-------||------------------|-----------------|------------------|

[A5]Q [A]E E +E E E E [A5]Q [A]E E +E E E E [E]Q Q +E [A/E]E E E [E]Q Q +E [A/E]E E E
| | | | | | | | | | | | | | | | | | | | | | | | | |
[/] [/] [/] [/] [/] [/] [/] [/] [/] [/] [/] [/] [/] [/] [/] [/] [/] [/] [/] [/] [/] [/] [/] [/] [/] [/] 
Q E E E E Q Q Q E E Q Q Q E E Q Q Q E E Q
 
 |-3----0----3-----|----3------0-----|----------------|-----------------|
 |-2---------------|----2------------|----0-----2-----|----0-----2------|
 |-----------------|-----------------|----1-----2-----|----1-----2------|
 |----2--------2---|----2--------2---|----2-------2---|----2-------2----|
 |-0-------0-------|-0-------0-------|----------------|-----------------|
 |-----------------|-----------------|-0------0-------|-0------0--------|

$
[E]Q Q +E [A/E]E E E [E]Q Q +E [A/E]E E E [A5]Q [A]E E +E E E E [A5]Q [A]E E +E E E E
| | | | | | | | | | | | | | | | | | | | | | | | | |
[/] [/] [/] [/] [/] [/] [/] [/] [/] [/] [/] [/] [/] [/] [/] [/] [/] [/] [/] [/] [/] [/] [/] [/] [/] [/] 
Q Q E E Q Q Q E E Q Q E E E E Q Q Q E E Q
 
 |----------------|----------------|-3----0----3-----|----3------0------|
 |----0-----2-----|----0-----2-----|-2---------------|----2-------------|
 |----1-----2-----|----1-----2-----|-----------------|------------------|
 |----2-------2---|----2-------2---|----2--------2---|----2--------2----|
 |----------------|----------------|-0-------0-------|-0-------0--------|
 |-0------0-------|-0------0-------|-----------------|------------------|

[A5]Q [A]E E +E E E E [A5]Q [A]E E +E E E E [A5]Q [A]E E +E E E E [A5]Q [A]E E +E E E E
| | | | | | | | | | | | | | | | | | | | | | | | | | | |
[/] [/] [/] [/] [/] [/] [/] [/] [/] [/] [/] [/] [/] [/] [/] [/] [/] [/] [/] [/] [/] [/] [/] [/] [/] [/] [/] [/] 
Q E E E E Q Q Q E E Q Q Q E E Q Q E E E E Q
 
 |-3----0----3-----|----3------0-----|----3------0-----|-3----0----3------|
 |-2---------------|----2------------|----2------------|-2----------------|
 |-----------------|-----------------|-----------------|------------------|
 |----2--------2---|----2--------2---|----2--------2---|----2--------2----|
 |-0-------0-------|-0-------0-------|-0-------0-------|-0-------0--------|
 |-----------------|-----------------|-----------------|------------------|

[E]Q E E +E [A/E]E E E [E]Q E E +E [A/E]E E E [E]Q E E +E [A/E]E E E [E]Q E E +E [A/E]E E E
| | | | | | | | | | | | | | | | | | | | | | | | | | | |
[/] [/] [/] [/] [/] [/] [/] [/] [/] [/] [/] [/] [/] [/] [/] [/] [/] [/] [/] [/] [/] [/] [/] [/] [/] [/] [/] [/] 
Q Q E E Q Q Q E E Q Q Q E E Q Q Q E E Q
 
 |-----------------|-----------------|-----------------|------------------|
 |----0------2-----|----0------2-----|----0------2-----|----0------2------|
 |----1------2-----|----1------2-----|----1------2-----|----1------2------|
 |----2--------2---|----2--------2---|----2--------2---|----2--------2----|
 |-----------------|-----------------|-----------------|------------------|
 |-0-------0-------|-0-------0-------|-0-------0-------|-0-------0--------|

Q [B7]E E +E E E E Q E E +E E E E Q [A]E E +E E E E [A5]Q [A]E E +E E E E
| | | | | | | | | | | | | | | | | | | | | | | | | | | |
o / / / / / / / / / / / / / o / / / / / / / / / / / / /
Q Q Q Q Q Q E E Q Q q H Q Q Q Q
 
 |-----------------|-----------------|-----------------|----3--------3----|
 |----0------------|----0------0-0---|----4------------|----2-------------|
 |----2------------|----2------2-2---|----4------------|----2-------------|
 |----1------------|----1------1-1---|----4------------|------------------|
 |-2-----------0---|-2-------2-------|-----------------|-0----------------|
 |---------2-------|-----------------|-----------------|------------------|

To Coda
[E]Q E E +E [A/E]E E E [E]Q E E +E [A/E]E E E [E]Q E E +E [A/E]E E E [E]Q E E +E [A/E]E E E
| | | | | | | | | | | | | | | | | | | | | | | | | | | |
[/] [/] [/] [/] [/] [/] [/] [/] [/] [/] [/] [/] [/] [/] [/] [/] [/] [/] [/] [/] [/] [/] [/] [/] [/] [/] [/] [/] 
Q Q E E Q Q Q E E Q Q Q E E Q Q Q E E Q
 
 |-----------------|-----------------|-----------------|------------------|
 |----0------2-----|----0------2-----|----0------2-----|----0------2------|
 |----1------2-----|----1------2-----|----1------2-----|----1------2------|
 |----2--------2---|----2--------2---|----2--------2---|----2--------2----|
 |-----------------|-----------------|-----------------|------------------|
 |-0-------0-------|-0-------0-------|-0-------0-------|-0-------0--------|

Guitar Solo
1.,2.,3. 4.
[A5]Q [A]E E +E E E E [A5]Q [A]E E +E E E E [A5]Q [A]E E +E E E E [A5]Q [A]E E +E E E E
| | | | | | | | | | | | | | | | | | | | | | | | | | | |
[/] [/] [/] [/] [/] [/] [/] [/] [/] [/] [/] [/] [/] [/] [/] [/] [/] [/] [/] [/] [/] [/] [/] [/] [/] [/] [/] [/] 
Q Q E E Q 4x Q Q E E Q Q E E E E Q Q Q E E Q
 
 |----3------0------||----3------0-----|-3----0----3-----|----3------0------|
 |----2------------o||-----------------|-----------------|------------------|
 |------------------||----2------------|-----------------|----2-------------|
 |----2--------2----||-------------2---|----2--------2---|------------------|
 |-0-------0-------o||-0-------0-------|-0-------0-------|-0-------0---2----|
 |------------------||-----------------|-----------------|------------------|

[A5]Q [A]E E +E E E E [E]Q E E +E [A/E] E E E
| | | | | | | | | | | | | |
[/] [/] [/] [/] [/] [/] [/] [/] [/] [/] [/] [/] [/] [/] 
Q E E E E Q Q Q E E Q
 
 |-3----0----3------|----12--------------|
 |------------------|------------12------|
 |------------------|--------------------|
 |----2--------2/---|----14---------14---|
 |-0-------0--------|--------------------|
 |------------------|-0--------0---------|

[E] Q E E +E [A/E] E E E [E]Q E E +E [A/E] E E E
| | | | | | | | | | | | | |
[/] [/] [/] [/] [/] [/] [/] [/] [/] [/] [/] [/] [/] [/] 
Q E E E E Q Q Q E E Q
 
 |---------------------|----12--------------|
 |-14----12----14------|------------12------|
 |----------------13---|----13--------------|
 |---------------------|--------------------|
 |-----0---------------|-0-------------0----|
 |--0--------0---------|----------0---------|

[E] Q E E +E [A/E] E E E [B7]Q E E +E E E E
| | | | | | | | | | | | | |
[/] [/] [/] [/] [/] [/] [/] [/] [/] [/] [/] [/] [/] [/] 
Q E E E E q Q Q E E Q
 
 |---------------------|----7-------------|
 |-14-----12----14-0---|-----------10-----|
 |-13------------------|----8-------------|
 |---------------------|------------------|
 |-----14--------------|--------------9---|
 |------------0--------|-7-------7--------|

Q E E +E E E E [A] Q E E +E E E E
| | | | | | | | | | | | | |
[/] [/] [/] [/] [/] [/] [/] [/] [/] [/] [/] [/] [/] [/] 
Q E E E E Q Q Q E E Q
 
 |-7----------7-----|------------------------|
 |------10----------|-/10--8b8.5------5------|
 |------------------|-------------------6----|
 |------------------|------5-----------------|
 |----9---------9---|---0-----------0--------|
 |-7--------7-------|------------------------|

Q E E +E E E E [E]Q E E +E [A/E]E E E [E]Q E E +E [A/E]E E E [E]Q E E +E [A/E]E E E
| | | | | | | | | | | | | | | | | | | | | | | | | | | |
[/] [/] [/] [/] [/] [/] [/] [/] [/] [/] [/] [/] [/] [/] [/] [/] [/] [/] [/] [/] [/] [/] [/] [/] [/] [/] [/] [/] 
PM PM PM PM PM PM
Q E E E E q q q e e q 3x q q e e q q q e e q
 
 |-----------------||-------------------||-----------------|------------------||
 |-8----8----5-----||o----0------2-----o||----0------2-----|----0------2------||
 |----6--------6---||-----1------2------||----1------2-----|----1------2------||
 |-------------5---||-----2--------2----||----2--------2---|----2--------2----||
 |-0-------0-------||o-----------------o||-----------------|------------------||
 |-----------------||--0-------0--------||-0-------0-------|-0-------0--------||

Verse
[A5]Q [A]E E +E E E E [A5]Q [A]E E +E E E E [A5]Q [A]E E +E E E E [A5]Q [A]E E +E E E E
| | | | | | | | | | | | | | | | | | | | | | | | | | | |
[/] [/] [/] [/] [/] [/] [/] [/] [/] [/] [/] [/] [/] [/] [/] [/] [/] [/] [/] [/] [/] [/] [/] [/] [/] [/] [/] [/] 
Q Q E E Q Q Q E E Q Q Q E E Q Q Q E E Q
 
 |----3------0-----|----3------0-----|----3------0-----|----3------0------|
 |----2------------|----2------------|----2------------|----2-------------|
 |-----------------|-----------------|-----------------|------------------|
 |----2--------2---|----2--------2---|----2--------2---|----2--------2----|
 |-0-------0-------|-0-------0-------|-0-------0-------|-0-------0--------|
 |-----------------|-----------------|-----------------|------------------|

D.S. al Coda
[A5]Q [A]E E +E E E E [A5]Q [A]E E +E E E E [E]Q E E +E [A/E]E E E [E]Q E E +E [A/E]E E E
| | | | | | | | | | | | | | | | | | | | | | | | | | | |
[/] [/] [/] [/] [/] [/] [/] [/] [/] [/] [/] [/] [/] [/] [/] [/] [/] [/] [/] [/] [/] [/] [/] [/] [/] [/] [/] [/] 
Q Q E E Q Q E E E E Q Q Q E E Q Q Q E E Q
 
 |----3------0-----|-3----0----3-----|-----------------|------------------||
 |----2------------|-2---------------|----0------2-----|----0------2------||
 |-----------------|-----------------|----1------2-----|----1------2------||
 |----2--------2---|----2--------2---|----2--------2---|----2--------2----||
 |-0-------0-------|-0-------0-------|-----------------|------------------||
 |-----------------|-----------------|-0-------0-------|-0-------0--------||

Outro
&
[A5]Q [A]E E +E E E E [A5]Q [A]E E +E E E E [A5]Q [A]E E +E E E E
| | | | | | | | | | | | | | | | | | | | |
[/] [/] [/] [/] [/] [/] [/] [/] [/] [/] [/] [/] [/] [/] [/] [/] [/] [/] [/] [/] [/] 
Q Q E E Q Q Q E E Q Q Q E E Q
 
 |----0------0-----|----3------0-----|----3------0-----|
 |----2------2-----|----2------------|----2------------|
 |----2------2-----|-----------------|-----------------|
 |----2--------2---|----2--------2---|----2--------2---|
 |-0-------0-------|-0-------0-------|-0-------0-------|
 |-----------------|-----------------|-----------------|

[A5]Q [A]E E +E E E E [A5]Q [A]E E +E E E E [E]Q E E +E [A/E]E E E
| | | | | | | | | | | | | | | | | | | | |
[/] [/] [/] [/] [/] [/] [/] [/] [/] [/] [/] [/] [/] [/] [/] [/] [/] [/] [/] [/] [/] 
PM PM
Q Q E E Q Q Q E E Q q Q e E Q 4x
 
 |----3------0-----|----3------0-----||-------------------||
 |----2------------|-----------------||o----0------2-----o||
 |-----------------|-----------------||-----1------2------||
 |----2--------2---|----2--------2---||-----2--------2----||
 |-0-------0-------|-----------------||o-----------------o||
 |-----------------|-0-------0-------||--0-------0--------||


Important: The song above is NOT stored on the Chordie server. The original song is hosted at www.azchords.com. Chordie works as a search engine and provides on-the-fly formatting. Chordie does not index songs against artists'/composers' will. To remove this song please click here.

Text color:
Chord color:
Chord grids: 
Font size:    
Page size: 

A A/E A5 B7 E
Rate #3 of 8 versions

Jango Player

Login - add to songbook

SHARE PAGE  



You need to log in to post comments