Guitar Tabs, Chords and Lyrics
Server problems seems to be fixed. Chordie has been experiencing problems with songs disappearing. These issues now seems to be fixed, but still verifying the fix. If you find anything strange, please email admin@chordie.com.


Thinking About You  Elvis Presley

Intro] and (with variations) [Verse]
[C] [G6/B] [Am] [C/G] 
[1] [+] [2] [+] [3] [+] [4] [+] [1] [+] [2] [+] [3] [+] [4] [+] [1] [+] [2] [+] [3] [+] [4] [+] [1] [+] [2] [+] [3] [+] [4] [+]  
 
 e|------0---------|------0---------|----------------|------0---------|
 B|----1-----1-----|----3-----3-----|----1-0---1-----|----1-----1-----|
 G|--0---------0---|--0---------0---|--2---------2---|--0---------0---|
 D|----------------|----------------|----------------|----------------|
 A|3-------3-------|2-------2-------|0-------0-------|----------------|
 E|----------------|----------------|----------------|3--------3------|

F D9/F# [ G Am G/B C G7/D ]
[1] [+] [2] [+] [3] [+] [4] [+] [1] [+] [2] [+] [3] [+] [4] [+] [1] [+] [2] [+] [3] [+] [4] [+] [1] [+] [2] [+] [3] [+] [4] [+]  
 
 e|------1---------|------0---------|----------------|----------------|
 B|----1-----1-----|----1-----1-----|----0---1-----3-|----5-----6---0-|
 G|--2---------2---|--2---------2---|--0-------0-----|0-----0-----0---|
 D|----------------|----------------|----------------|----------------|
 A|----------------|----------------|------0-----2---|--3----/5-------|
 E|1-------1-------|2------2--------|3---------------|----------------|

(break)
 
 ---------------------------------------------------------------------------

CHORDS
E-A-D-G-B-e
G6/B x-2-0-0-3-0
C/G 3-x-2-0-1-0
D9/F# 2-x-0-2-1-0
D7/F# 2-x-0-2-1-2
[F7] [1-3-1-2-4-1]  
 
 ---------------------------------------------------------------------------

[Intro] 
| C | G6/B | Am | C/G | F | D9/F# | [ G Am G/B | C G7/D ] |
(break)
[Verse] 
[C] I woke up this [G6/B]morning and I [Am]tried to ca-a-all [C/G]you, mmm
[F] But you weren't there and that put me[Fm] in despair
[C] So I thought that [G6/B]maybe I could [Am]lose my [C/G]mind
D9/F# D7/F# F7 | C G/B |
In the countryside so I went for a ride
[Cborus] 
But I [F]never stopped [G]thinking a[C]bout you[G/B]
[F] Found myself [G]wishing you were [C]there
Just to [Am]be with [C/G]me
[F] Feel the breeze
D7/F# | [ G Am G/B | C G7/D ] |
Sun didn't smile I didn't care
(break)
[Verse] 
[C] I decided to [G6/B]try just [Am]one mo-o-ore [C/G]time
[F] To let you know I really[Fm] love you so
[C] Before I ar[G6/B]rived I saw you [Am]go-o-o a[C/G]way
D7/F# F7 | C G/B |
With another guy, a tear filled my eye
[Cborus] 
But I [F]never stopped [G]thinking a[C]bout you[G/B]
[F] Found myself [G]wishing you were [C]there
Just to [Am]be with [C/G]me
[F] Feel the breeze
D7/F# | [ G Am G/B | C G7/D ] |
Sun didn't smile I didn't care
(break)
[Verse] 
[C] A long time has [G6/B]passed since that [Am]day I-I-I [C/G]cried
[F] Life is fine and I'm .[Fm].. doin' fine
[C] When I'm at [G6/B]home and I [Am]fe-el all a[C/G]lone
D7/F# F7 | C G/B |
Well I think of you, try to get a message through
[Cborus] 
But I [F]never stopped [G]thinking a[C]bout you[G/B]
[F] Found myself [G]wishing you were [C]there
Just to [Am]be with [C/G]me
[F] Feel the breeze
D7/F# | [ G Am G/B | C G7/D ] |
Sun didn't smile I didn't care
(break)
[Outro] 
| C | G6/B | Am | C/G |
| F | % | Fm | % |
| C | G6/B | Am | C/G |
| D7/F# | % | F7 | C C/B |
(fade during the first half of this instrumental verse)

Important: The song above is NOT stored on the Chordie server. The original song is hosted at www.azchords.com. Chordie works as a search engine and provides on-the-fly formatting. Chordie does not index songs against artists'/composers' will. To remove this song please click here.

Text color:
Chord color:
Chord grids: 
Font size:    
Page size: 

Am C C/G F F7 Fm G G/B G6/B
Rate #1 of 2 versions

Login - add to songbook

SHARE PAGE  



You need to log in to post comments