Guitar Tabs, Chords and Lyrics
Major upgrade!! After one year development the new version of Chordie is now online! Please give feedback.


T-R-O-U-B-L-E  Elvis Presley

(Verse 1)
If you're looking for trouble
 
 e|-------------------------|
 B|-------------------------|
 G|-------------------------|
 D|-------------------------|
 A|-----1-----1--3----------|
 E|--3-----3----------------| 

You came to the right place
 
 e|-------------------------|
 B|-------------------------|
 G|-------------------------|
 D|-----3-----2-------------|
 A|--3-----3-----3----------|
 E|-------------------------| 

If you're looking for trouble
 
 e|-------------------------|
 B|-------------------------|
 G|-------------------------|
 D|-------------------------|
 A|-----1-----1--3----------|
 E|--3-----3----------------| 

Just look right in my face
 
 e|-------------------------|
 B|-------------------------|
 G|-------------------------|
 D|-----3-----2-------------|
 A|--3-----3-----3----------|
 E|-------------------------| 

I was born standing up
 
 e|-------------------------|
 B|-------------------------|
 G|-------------------------|
 D|-------------------------|
 A|-----1-----1--3----------|
 E|--3-----3----------------| 

And talking back
 
 e|-------------------------|
 B|-------------------------|
 G|-------------------------|
 D|-----3-----2-------------|
 A|--3-----3-----3----------|
 E|-------------------------| 

(NC) C7
My daddy was a green-eyed mountain jack
Because I'm [F]evil, my middle name is [C]misery
G7 F (tacet)
Well I'm evil, so don't you mess around with me
[C] [C7] [F] [Fm] [C] [G#7] [G7]  
(Verse 2)
I've never looked for trouble
 
 e|-------------------------|
 B|-------------------------|
 G|-------------------------|
 D|-------------------------|
 A|-----1-----1--3----------|
 E|--3-----3----------------| 

but I've never ran.
 
 e|-------------------------|
 B|-------------------------|
 G|-------------------------|
 D|-----3-----2-------------|
 A|--3-----3-----3----------|
 E|-------------------------| 

I don't take no orders
 
 e|-------------------------|
 B|-------------------------|
 G|-------------------------|
 D|-------------------------|
 A|-----1-----1--3----------|
 E|--3-----3----------------| 

From no kind of man.
 
 e|-------------------------|
 B|-------------------------|
 G|-------------------------|
 D|-----3-----2-------------|
 A|--3-----3-----3----------|
 E|-------------------------| 

I'm only made out of
 
 e|-------------------------|
 B|-------------------------|
 G|-------------------------|
 D|-------------------------|
 A|-----1-----1--3----------|
 E|--3-----3----------------| 

flesh, blood, and bone.
 
 e|-------------------------|
 B|-------------------------|
 G|-------------------------|
 D|-----3-----2-------------|
 A|--3-----3-----3----------|
 E|-------------------------| 

(NC) C7
But if you're gonna start a rumble don't you try it all alone.
[C7]Because I'm [F]evil, my middle name is miser..[C]y.
G7 F N.C.
Well, I'm evil, so don't you mess around with me.
(Outro)
[C]I'm evil, evil, evil, as can be.
[F]I'm evil, evil, evil, as[C] can be.
So, [G7]don't mess around don't mess around..
don't mess around with [C]me.
I'm [C]evil, I'm evil, e[F]vil, ev[C]il..
So, [G7]don't mess around with [C]me.
I'm [D]evil, I'm evil, evil, evil..
So, [G7]don't mess around with [C]me.

Important: The song above is NOT stored on the Chordie server. The original song is hosted at www.azchords.com. Chordie works as a search engine and provides on-the-fly formatting. Chordie does not index songs against artists'/composers' will. To remove this song please click here.

Text color:
Chord color:
Chord grids: 
Font size:    
Page size: 

C C7 D F Fm G#7 G7
Rate #1 of 2 versions

Jango Player

Login - add to songbook

SHARE PAGE  



You need to log in to post comments