Guitar Tabs, Chords and Lyrics
Server problems seems to be fixed. Chordie has been experiencing problems with songs disappearing. These issues now seems to be fixed, but still verifying the fix. If you find anything strange, please email admin@chordie.com.


Magnificent Lies  Emil Bulls

REAL FANS SUPPORT BANDS BY PURCHASING THEIR CD'S!!!
Tuning: Standard
. = Palm-Muted
~ = hold note
^ = vibrate
p = pull off
h = hammer on
/ = slide up
\ = slide down
Meh.
UPDATE ??/08/2011
I dont know the date. and i got mail, check the 2nd riff at the bottom. im out.
Chords:
G* Am* F* C* Am G F C D Em
 
 E---3---5---1---3---0‚??-(3)-(1)--0---2---0----------|
 B---3---5---1---5---1---3---1---1---3---0----------|
 G---4---5---2---5---2---0---2---0---2---0----------|
 D---5---7---3---5---2---0---3---2---0---2----------|
 A---5---7---3---3---0---2---3---3-------2----------|
 E---3---5---1-----------3‚??-(1)----------0----------|

G* slide Am* x3
F* C*
(auch im verse weiterspielen, bis andere akkorde angegeben sind)
No b**chen' no fightin' the drugs are for free
We know all the tricks we belong to the scene
The wheel of fortune rolls to us again
We'll take your queen
Surprise - Checkmate
[Am]Around the world boys and girls
Are willing to bel[G]ieve in our lies
Our [F]magnificent lies
[Am]You'd better be scared be aware
Just take a look at the [C]sins of your life
We [D]took all your [F]conscience away
G* slide Am* x3
F* C*
Live and alive we're back from the dead
We'll give you something you'll never forget
Girls liquor sex
Will doom us again
You gonna sweat blood
When we unleash hell
We're the [F]wolves and you're the [Am]lamb
[Am]Around the world boys and girls
Are willing to bel[G]ieve in our lies
Our [F]magnificent lies
[Am]You'd better be scared be aware
Just take a look at the [C]sins of your life
We [D]took all your [F]conscience away
G* slide Am* x3
F* C*
G* slide Am* x3
F* C*
Em (RIFF)
[Am]Around the world boys and girls
Are willing to bel[G]ieve in our lies
Our [F]magnificent lies
[Am]You'd better be scared be aware
Just take a look at the [C]sins of your life
We [D]took all your [F]conscience away
G* slide Am* x3
Just confess just confess just confess them all
The [C]sins of your life the [D]sins of your nights to [F]me [F]
[Am]Believe in my lies!
RIFF
 
 E--------0--0-0----------------------------------|
 B--------0--0-0----------------------------------|
 G--------0--0-0----------------------------------|
 D---0h2-----2-2---x3-----------------------------|
 A---0h2-----2-2------------3---------------------|
 E---0-------0-0----------5---5-3--0-3-5----------|

Riff 2 (this is updated) thanks to the self-named "noob noob". terrific name
 
 e--------0--0-0------------------------------------------|
 B--------0--0-0---------------------8b/10-13-10-}x3------|
 G--------0--0-0---------------------7b/9--12-9--}x3------|
 D---0h2-----2-2---x3-------------------------------------|
 A---0h2-----2-2-----------0-3-0--------------------------|
 E---0-------0-0----------3-------------------------------|

And that‚??s it! Please rate, comment and correct me!
Cheers...

Important: The song above is NOT stored on the Chordie server. The original song is hosted at www.azchords.com. Chordie works as a search engine and provides on-the-fly formatting. Chordie does not index songs against artists'/composers' will. To remove this song please click here.

Text color:
Chord color:
Chord grids: 
Font size:    
Page size: 

Am C D F G
Rate #1 of 2 versions

Login - add to songbook

SHARE PAGE  



You need to log in to post comments