Guitar Tabs, Chords and Lyrics
Update 25:10. 13:00. Site is back up running again. Songbooks are recovered. Woring on getting search back up..


These Are the Days  Emil Bulls

REAL FANS SUPPORT BANDS BY PURCHASING THEIR CD'S!!!
Tuning: Standard
. = Palm-Muted
~ = hold note
^ = vibrate
p = pull off
h = hammer on
/ = slide up
\ = slide down
Chords:
[C#m] [A] [B] [Abm] [E] [F#m]  
 
 E----4-----5-----7-----4-----0-----2---|
 B----5-----5-----7-----4-----0-----2---|
 G----6-----6-----8-----4-----1-----2---|
 D----6-----7-----9-----6-----2-----4---|
 A----4-----7-----9-----6-----2-----4---|
 E----------5-----7-----4-----0-----2---|

Wiedermal ein tab auf nachfrage... Falls also immernoch nachfrage besteht, schreib mir
bitte an die
oben angegebene email addresse ;D
Yep. Ach ja und im verse gibt??s nur einen akkord, also schreib ich ihn nur einmal hin
und tab den
Riff :D Viel Spa?
Verse Riff:
 
 E--------------------------------------------------|
 B----------------5---------------------------------|
 G--------------6-----------------------------------|
 D-------2??-4/6-------------------------------------|
 A---2/4--------------------------------------------|
 E--------------------------------------------------|

Pre-Chorus Riff:
 
 E---12-x16---7-x8---7-x8-----12-x8---7-x8---12-x8---7-x8-------|
 B---14-------9------7--------14------9------14------9----------|
 G--------------------------------------------------------------|
 D-------??------------------------------------------------------|
 A--------------------------------------------------------------|
 E--------------------------------------------------------------|

Interlude Riff:
 
 E-------------------------------------------------|
 B-------------------------------------------------|
 G---6--------8--------9-------11------13----------|
 D---x-x16----x??x16----x-x8----x--x8---x--x16------|
 A---4--------6--------7-------9-------11----------|
 E-------------------------------------------------|
 E---------------------------------------------------------------|
 G---6--------4-6--------5-------8-------9-------8-------6-------|
 D---x-x16----x??x-x15----x-x8----x-x8----x-x8----x-x8----x-------|
 A---4--------2-4--------3-------6-------7-------6-------4-------|
 E---------------------------------------------------------------|

Riff im letzten Verse:
1. Gitarre:
 
 E---12-x16---7-x8---7-x8-----12-x8---7-x8---12-x8---7-x8-------|
 B---14-------9------7--------14------9------14------9----------|
 G--------------------------------------------------------------|
 D-------??------------------------------------------------------|
 A--------------------------------------------------------------|
 E--------------------------------------------------------------|

2. Gitarre:
 
 E-------4-----4-----------2-----2-----------0-----0-----------0-----0------|
 B-----5---5-----5-------4---4-----4-------2---2-----2-------2---2-----2----|
 G---6-------6---------4-------4---------2-------2---------2-------2--------|
 D-------??------------------------------------------------------------------|
 A--------------------------------------------------------------------------|
 E--------------------------------------------------------------------------|

Outro Riff:
 
 E----------------------------------------------------------------------|
 B----------------------------------------------------------------------|
 G---13-13-13-13-13--13-13-13-13-13--13-13-13-13-13--13-13-13-13-13-----|
 D---x--x--x??-x--x---x--x--x--x--x---x--x--x--x--x---x--x--x--x--x------|
 A---11-11-11-11-11--11-11-11-11-11--11-11-11-11-11--11-11-11-11-11-----|
 E----------------------------------------------------------------------|

[C#m]When the moon and I are talking
Down by the riverside
The old man and me alone
When I hear the gentle whistling
And the scent of the summer feels so intense
[C#m]These are the [B]days[Abm] I r[A]emember you
Singing our songs to me
[C#m]Oh these are the [A]days
[Abm]I remember [C#m]you
[E]Celebrating [A]life
Like the [Abm]world [E] was yours
When the [C#m]walls come tumbling down
And I??[A]m feeling down and out
I just [C#m]open up a sixpack of [A]memor[F#m]ies
I [C#m]light a cigarette grab my best friend jack and
Lose [C#m]myself in the warm distortion that??[A]s on my ste[F#m]reo
[C#m]These are the [B]days[Abm] I r[A]emember you
Singing our songs to me
[C#m]Oh these are the [A]days
[Abm]I remember [C#m]you
[E]Celebrating [A]life
Like the [Abm]world [E] was yours
>>>Interlude Riff<<<
I??m floating
[C#m] I??[B]m floating home t[A]o you
My [C#m]wooden verb heartbeat [B]gives me the creeps
To[A]night I??m coming home to you
[C#m]Oh these are the [A]days
[Abm]I remember [C#m]you
[E]Celebrating [A]life
Like the [Abm]world [E] was yours
[C#m]Oh these are the [A]days
[Abm]I remember [C#m]you
[E]Celebrating [A]life
Like the [Abm]world [E] was yours
und das wars auch schon... :D Bitte bewerten, kommentieren und mich gerne verbessern :O
Cheers...

Important: The song above is NOT stored on the Chordie server. The original song is hosted at www.azchords.com. Chordie works as a search engine and provides on-the-fly formatting. Chordie does not index songs against artists'/composers' will. To remove this song please click here.

Text color:
Chord color:
Chord grids: 
Font size:    
Page size: 

A Abm B C#m E F#m
Rate #1 of 2 versions

Login - add to songbook

SHARE PAGE  



You need to log in to post comments