Guitar Tabs, Chords and Lyrics
Update 25:10. 13:00. Site is back up running again. Songbooks are recovered. Woring on getting search back up..


Je vis deux fois  Emmanuel Moire

 
 -------------------------------------------------------------------------

JE VIS DEUX FOIS ‚?? Emmanuel Moire
 
 -------------------------------------------------------------------------

>>Good guitar song this one. The intro bit is played
in the first part of the verses as well. Only the
choruses are fully strummed, so pick, pick, pick. Try it out.<<
Standard tuning
INTRO
[(Em)] [(C)] [(Asus2/C#)] [(Em)] [(C)] [(Asus2/C#]  
 
 e|---------------------------------------------------------------|
 B|---0---------1------0-----0------0---------1------0-----0------|
 G|-----0---------0------2-----2------0---------0------2-----2----|
 D|--2---------2-2----2-2---2-2----2---------2-2----2-2---2-2-----|
 A|-------0h2-3------4-----4------------0h2-3------4-----4--------|
 E|-0-----------------------------0-------------------------------|
 e|---------------------------------------------------------------|
 B|-------0---------1-----0-----0-----0---------1-----0------0----|
 G|---------0---------0-----2-----2-----0---------0-----2---2-2---|
 D|------2---------2-2---2-2---2-2---2---------2-2---2-2---2------|
 A|-----------0h2-3-----4-----4-----------0h2-3-----4-----4-------|
 E|-3p2-0---------------------------0-----------------------------|

VERSE1
[Em] Si tu veux me [C]dire ce qu'on d[Asus/C#]it tout bas
[Em] J'ai les [C]yeux [Asus2/C#]fermés
Et des [G]silences
Pour s'a[B7]pprocher
VERSE2
[Em] Si tu veux m'of[C]frir un peu d[Asus2/C#]e tes bras
[Em] J'ai un [C]coeur[Asus2/C#] leger
L√ sous[G] ma peau
Tu l'as [B7]touché
CHORUS
Je [G]vis deux[D] fois / Une [Am]vie pour [Em]toi
[C] Le temps qui reste[Em7/B] √ faire / Je[Am] vis deux[B7] fois
VERSE3
[Em] Si tu veux dor[C]mir le dos sou[Asus2/C#]s mes doigts
[Em] J'ai un [C]lit [Asus2/C#]défait
Et comme[G] hier
Une nuit [B7]entière
Pour [Em]mieux se repo[B7]ser
CHORUS (x 1¬Ĺ)
INTERLUDE
[G] Je vis deux [D]fois [Am]/ Une vie sa[Em]ns toi
[C] Et celle o√Ļ je t[Em7/B]e serre[Am] / Je vis deux[B7] fois
CHORUS2
Je [G]vis deux [D]fois / une [Am]vie pour [Em]toi
[C] Si jamais je m[Em7/B]e perd / pro[Am]mis, dis [B7]moi
[C] J'ai une vie pour te[Dsus2] plaire [Am]/ une vie pour [B7]toi.[Em]
NB!
[Dsus2]--0--
[--3--]--0--
--0--
[--5--]--x--
=============================================================

Important: The song above is NOT stored on the Chordie server. The original song is hosted at www.azchords.com. Chordie works as a search engine and provides on-the-fly formatting. Chordie does not index songs against artists'/composers' will. To remove this song please click here.

Text color:
Chord color:
Chord grids: 
Font size:    
Page size: 

Am Asus2/C# B7 C D Dsus2 Em Em7/B G
Rate #1 of 1 versions

Login - add to songbook

SHARE PAGE  




You need to log in to post comments