Guitar Tabs, Chords and Lyrics
Login is temporarily disabled for some users. Do not panic. Will be back in an hour or two. DO NOT REREGISTER!!


Hero  Enrique Iglesias

***UPDATED: Feb 6, 2008***
Comment from "Merten" brought some attention to me. So I added some
changes to the intro, chords, and solo. :)
 
 -------------------------------------------------------------------------------------

Tuning: E A D G B E
Chords used I think are: G, Em, C, and D
Guitar strumming will change from (1) strum, to 4-8 strums per chord.
(#) Means quieter note.
Intro Tabs:
 
 |-------3--------3--------3-------3--------3-------3--------3-----|
 |---------3--------3--------3-------3--------3-------3--------3---|
 |---(0)-----0--------0--------0-------0--------0-------0--------2-|
 |--------------------------------------------------------0--------|
 |---------------------------------------3-------------------------|
 |-3----------(3)-------0------------------------------------------|

[Enrique Wbispers] (Let me be your hero)
Verse Tabs:
 
 |-------3--------3--------3---------3--------3---------3--------3---------3-----|
 |---------3--------3--------3---------3--------3---------3--------3---------3---|
 |---(0)-----0--------0--------0---------0--------0---------0--------2---------0-|
 |------------------------------------------------------------0--------(0)-------|
 |-----------------------------------------3--------(3)--------------------------|
 |-3----------(3)-------0--------(0)---------------------------------------------|

[Verse 1] 
Would you [G]dance,
If I asked you to [Em]dance?
Would you [C]run,
And never look [D]back?
Would you [G]cry,
If you saw me [Em]crying?
Would you [C]save my [D]soul to[G]night?
[Verse 2] 
Would you [G]tremble
If I touched your [Em]lips?
Would you [C]laugh,
Oh please tell me [D]this.
Now would you [G]die,
For the one you [Em]love.
Hold me [C]in your [D]arms to[G]night.
[Cborus] 
[G]I can [D]be your hero, [C]baby.
[G]I can [D]kiss away the [C]pain.
[G]I will [D]stand by you for[C]ever.
[G]You can [D]take my [C]breath away.
[Verse 3] 
Would you [G]swear,
That you'll always be [Em]mine?
Would you [C]lie,
Would you run [D]back?
Am I in too [Em]deep?
Have I lost my [C]mind?
I don't [C]care, you're [D]here to[G]night.
[Cborus] 
[G]I can [D]be your hero, [C]baby.[G]
[G]I can [D]kiss away the [C]pain.[G]
[G]I will [D]stand by you for[C]ever.[G]
[G]You can [D]take my breath a[C]way.
[Solo] 
 
 |-----------------------------------------------------|
 |--------------------7-----7-8-7----------------------|
 |----------------7-7---7--7------7------------------7-|
 |-5-5-5-7s9-9----5--------7--------7s9-7----9s5-5-7---|
 |-----------------------------------------------------|
 |-----------------------------------------------------|

[Verse 5] 
 

Oh, I just want to hold you
 

I just want to hold you
Oh yeah, Am I in too [G]deep?
Have I lost my [Em]mind?
Well I don't [C]care, you're [D]here to[G]night.
[Ending Cborus] 
[G]I can [D]be your hero, [C]baby.[G]
[G]I can [D]kiss away the [C]pain. (O[G]h yeah!)
[G]I will [D]stand by you for[C]ever.[G]
[G]You can [D]take my breath a[C]way.[G]
[G]I can [D]be your hero, [C]baby.[G]
[G]I can [D]kiss away the [C]pain.[G]
[G]I will [D]stand by you for[C]ever.[G]
[G]You can [D]take my breath a[C]way.[G]
[G]You can [D]take my breath a[C]way.[G]
[G]I can [D]be your [C]hero.
This is the closest that my ear can get. I think it gets kinda confusing after a while.
I think it's a little better than the others, to me at least. I hope this will be better though.

Important: The song above is NOT stored on the Chordie server. The original song is hosted at www.azchords.com. Chordie works as a search engine and provides on-the-fly formatting. Chordie does not index songs against artists'/composers' will. To remove this song please click here.

Text color:
Chord color:
Chord grids: 
Font size:    
Page size: 

C D Em G
Rate #1 of 9 versions

Jango Player

Login - add to songbook

SHARE PAGE  



You need to log in to post comments