Guitar Tabs, Chords and Lyrics
Server problems seems to be fixed. Chordie has been experiencing problems with songs disappearing. These issues now seems to be fixed, but still verifying the fix. If you find anything strange, please email admin@chordie.com.


Abandoned  Ensiferum

As recorded by Ensiferum
(From the 2001 Album ENSIFERUM)
Words and Music by Ensiferum
Arranged by Ensiferum
Gtr I (E A D G B E) - 'Solo'
Gtr II (E A D G B E) - 'Rythm'
Gtr III (E A D G B E) - 'Rythm 2'
Gtr IV (E A D G B E) - 'Acoustic 1'
Gtr V (E A D G B E) - 'Acoustic 2'
Intro
Q.=54
6/8
Gtr II
TP TPTP TP TP TPTPTP TP TP TPTPTP TP TP TPTP
Q E Q E E. S E Q E E. S E Q E Q E Q.
 
 ||--------------|--------------|--------------|-------------||
 ||o-----------8-|-6------------|-6------------|------------o||
 ||------7-9-----|----9-7-9---5-|----9-7-9---5-|-----5-------||
 ||--7-----------|--------------|--------------|-9-----7-----||
 ||o-------------|--------------|--------------|------------o||
 ||--------------|--------------|--------------|-------------||

|
| Gtr III
| TP TP TP TP TP TP
| Q. Q. Q. Q. Q. Q. Q. Q.
 
 ||--------------|--------------|--------------|-------------||
 ||o-------------|--------------|--------------|------------o||
 ||--------------|--------------|--------------|-------------||
 ||--------------|--------------|--------------|-------------||
 ||o-------------|-5------------|-8------7-----|------------o||
 ||--5-----8-----|--------5-----|--------------|-7-----5-----||

TP TPTP TP TP TPTPTP TP TP TPTPTP TP TP TPTP
Q E Q E E. S E Q E E. S E Q E Q E Q.
 
 |-----------|-------------|--------------|-------------|
 |---------8-|-6-----------|-6------------|-------------|
 |----7-9----|----9-7-9--5-|----9-7-9---5-|-----5-------|
 |-7---------|-------------|--------------|-9-----7-----|
 |-----------|-------------|--------------|-------------|
 |-----------|-------------|--------------|-------------|

|
| TP TPTP TP TP TPTPTP TP TP TPTPTP
| Q E Q E E. S E Q E E. S E Q. Q. Q.
 
 |-----------|-------------|--------------|-------------|
 |-----------|-------------|--------------|-------------|
 |-----------|-------------|--------------|-------------|
 |---------5-|-------------|--------------|-------------|
 |----5-7----|-8--7-8------|-8--7-8-------|-------------|
 |-5---------|--------5--8-|--------5-----|-7-----5-----|

9/8
TP TPTP TP TP TPTPTP TP TP TPTPTP TP TP TP
Q E Q E E. S E Q E E. S E Q E Q E Q. +W +E
 
 |-----------|-------------|--------------|------------|-----------------|
 |---------8-|-6-----------|-6------------|------------|-----------------|
 |----7-9----|----9-7-9--5-|----9-7-9---5-|-----5------|-----------------|
 |-7---------|-------------|--------------|-9-----7----|-(7)--------(7)--|
 |-----------|-------------|--------------|------------|-----------------|
 |-----------|-------------|--------------|------------|-----------------|

|
| TP TPTP TP TP TPTPTP TP TP TPTPTP
| Q E Q E E. S E Q E E. S E Q. Q. Q. +W +E
 
 |-----------|-------------|--------------|------------|-----------------|
 |-----------|-------------|--------------|------------|-----------------|
 |-----------|-------------|--------------|------------|-----------------|
 |---------5-|-------------|--------------|-------7----|-(7)--------(7)--|
 |----5-7----|-8--7-8------|-8--7-8-------|-------7----|-(7)--------(7)--|
 |-5---------|--------5--8-|--------5-----|-7-----5----|-(5)--------(5)--|

Verses
6[Am]/8[Dm]
Gtr V
Q. Q E Q E Q.
 
 |-0----------0-----0---|-5-----5---5----------|
 |-1----------1-----1---|-6-----6---6----------|
 |-2----------2-----2---|-7-----7---7----------|
 |-2----------2-----2---|-7-----7---7----------|
 |-0----------0-----0---|-5-----5---5----------|
 |----------------------|----------------------|

|
| Gtr IV
| E S S S S E S S S S E S S S S E S S S S
 
 |-0--0-0-0-0-0-0-0-0-0-|-5-5-5-5-5-5--5-5-5-5-|
 |-1--1-1-1-1-1-1-1-1-1-|-6-6-6-6-6-6--6-6-6-6-|
 |-2--2-2-2-2-2-2-2-2-2-|-7-7-7-7-7-7--7-7-7-7-|
 |-2--2-2-2-2-2-2-2-2-2-|-7-7-7-7-7-7--7-7-7-7-|
 |-0--0-0-0-0-0-0-0-0-0-|-5-5-5-5-5-5--5-5-5-5-|
 |----------------------|----------------------|

[G]Q. Q. [Am]Q. [G]Q.
 
 |-3----------3----------|-5----------3----------|
 |-3----------3----------|-5----------3----------|
 |-4----------4----------|-5----------4----------|
 |-5----------5----------|-7----------5----------|
 |-5----------5----------|-7----------5----------|
 |-3----------3----------|-5----------3----------|

|
| E S S S S E S S S S E S S S S E S S S S
 
 |-3--3-3-3-3-3--3-3-3-3-|-5--5-5-5-5-3--3-3-3-3-|
 |-3--3-3-3-3-3--3-3-3-3-|-5--5-5-5-5-3--3-3-3-3-|
 |-4--4-4-4-4-4--4-4-4-4-|-5--5-5-5-5-4--4-4-4-4-|
 |-5--5-5-5-5-5--5-5-5-5-|-7--7-7-7-7-5--5-5-5-5-|
 |-5--5-5-5-5-5--5-5-5-5-|-7--7-7-7-7-5--5-5-5-5-|
 |-3--3-3-3-3-3--3-3-3-3-|-5--5-5-5-5-3--3-3-3-3-|

[Am]Q. Q E [Dm]Q E Q.
 
 |-0----------0-----0---|-5-----5---5----------|
 |-1----------1-----1---|-6-----6---6----------|
 |-2----------2-----2---|-7-----7---7----------|
 |-2----------2-----2---|-7-----7---7----------|
 |-0----------0-----0---|-5-----5---5----------|
 |----------------------|----------------------|

|
| E S S S S E S S S S E S S S S E S S S S
 
 |-0--0-0-0-0-0-0-0-0-0-|-5-5-5-5-5-5--5-5-5-5-|
 |-1--1-1-1-1-1-1-1-1-1-|-6-6-6-6-6-6--6-6-6-6-|
 |-2--2-2-2-2-2-2-2-2-2-|-7-7-7-7-7-7--7-7-7-7-|
 |-2--2-2-2-2-2-2-2-2-2-|-7-7-7-7-7-7--7-7-7-7-|
 |-0--0-0-0-0-0-0-0-0-0-|-5-5-5-5-5-5--5-5-5-5-|
 |----------------------|----------------------|

[G] [A5]Gtr III[G5]
Q. Q. Q. Q.
 
 |-3----------3----------|------------------------|
 |-3----------3----------|------------------------|
 |-4----------4----------|------------------------|
 |-5----------5----------|-7----------5-----------|
 |-5----------5----------|-7----------5-----------|
 |-3----------3----------|-5----------3-----------|

|
| E S S S S E S S S S E S S S S E S S S S
 
 |-3--3-3-3-3-3--3-3-3-3-|-5--5-5-5-5-3--3-3-3-3--|
 |-3--3-3-3-3-3--3-3-3-3-|-5--5-5-5-5-3--3-3-3-3--|
 |-4--4-4-4-4-4--4-4-4-4-|-5--5-5-5-5-4--4-4-4-4--|
 |-5--5-5-5-5-5--5-5-5-5-|-7--7-7-7-7-5--5-5-5-5--|
 |-5--5-5-5-5-5--5-5-5-5-|-7--7-7-7-7-5--5-5-5-5--|
 |-3--3-3-3-3-3--3-3-3-3-|-5--5-5-5-5-3--3-3-3-3--|

[A5]Gtr II[D5] [G5] [C5] [G5] [A5] [G5]
Q. Q E Q. Q. Q. Q E Q. Q.
 
 |-----------|-----------|------------|-----------|
 |-----------|-----------|------------|-----------|
 |------5--9-|-7---------|------4---5-|-----------|
 |-7---------|------9----|-5----------|-7----5----|
 |-----------|-----------|------------|-----------|
 |-----------|-----------|------------|-----------|

|
| Gtr III
| H. Q. Q. Q. Q. Q. Q.
 
 |-----------|-----------|------------|-----------|
 |-----------|-----------|------------|-----------|
 |-----------|-7---------|-5----------|-----------|
 |-7---------|-7----5----|-5----5-----|-7----5----|
 |-7---------|-5----5----|-3----5-----|-7----5----|
 |-5---------|------3----|------3-----|-5----3----|

[A5]Q. Q E [D5]Q. [G5]Q. [C5]Q. [G5]Q E [A5]Q. +Q [G5]E
 
 |-----------|-----------|------------|----------------|
 |-----------|-----------|------------|----------------|
 |------5--9-|-7---------|------4---5-|----------------|
 |-7---------|------9----|-5----------|-7----(7)--5----|
 |-----------|-----------|------------|----------------|
 |-----------|-----------|------------|----------------|

|
| H. Q. Q. Q. Q. Q. +Q E
 
 |-----------|-----------|------------|----------------|
 |-----------|-----------|------------|----------------|
 |-----------|-7---------|-5----------|----------------|
 |-7---------|-7----5----|-5----5-----|-7----(7)--5----|
 |-7---------|-5----5----|-3----5-----|-7----(7)--5----|
 |-5---------|------3----|------3-----|-5----(5)--3----|

[A5]Q. Q E [G5]Q S S [C5]Q E [D5]Q. [G5]Q E [A5]Q. [G5]Q.
 
 |-----------|---------------|------------|-----------|
 |-----------|---------------|------------|-----------|
 |------5--9-|-7---5p4-5---7-|------4-----|-----------|
 |-7---------|---------------|-7--------5-|-7----5----|
 |-----------|---------------|------------|-----------|
 |-----------|---------------|------------|-----------|

|
| H. Q. Q. Q. Q. Q. Q.
 
 |-----------|---------------|------------|-----------|
 |-----------|---------------|------------|-----------|
 |-----------|---------5-----|-7----------|-----------|
 |-7---------|-5-------5-----|-7----5-----|-7----5----|
 |-7---------|-5-------3-----|-5----5-----|-7----5----|
 |-5---------|-3-------------|------3-----|-5----3----|

[A5]Q. Q E [G5]Q S S [C5]Q E [D5]Q. [G5]Q E [A5]Q. [G5]Q.
 
 |------------|---------------|------------|------------|
 |------------|---------------|------------|------------|
 |------5---9-|-7---5p4-5---7-|------4-----|------------|
 |-7----------|---------------|-7--------5-|-7----5-----|
 |------------|---------------|------------|------------|
 |------------|---------------|------------|------------|

|
| Q. Q. Q. Q. Q. Q. Q. Q.
 
 |------------|---------------|------------|------------|
 |------------|---------------|------------|------------|
 |------------|---------5-----|-7----------|------------|
 |-7----7-----|-5-------5-----|-7----5-----|-7----5-----|
 |-7----7-----|-5-------3-----|-5----5-----|-7----5-----|
 |-5----5-----|-3-------------|------3-----|-5----3-----|

Gtr II
TP TPTP TP TP TPTPTP TP TP TPTPTP TP TP TPTP
Q E Q E E. S E Q E E. S E Q E Q E Q.
 
 ||--------------|--------------|--------------|-------------||
 ||o-----------8-|-6------------|-6------------|------------o||
 ||------7-9-----|----9-7-9---5-|----9-7-9---5-|-----5-------||
 ||--7-----------|--------------|--------------|-9-----7-----||
 ||o-------------|--------------|--------------|------------o||
 ||--------------|--------------|--------------|-------------||

|
| Gtr III
| TP TP TP TP TP TP
| Q. Q. Q. Q. Q. Q. Q. Q.
 
 ||--------------|--------------|--------------|-------------||
 ||o-------------|--------------|--------------|------------o||
 ||--------------|--------------|--------------|-------------||
 ||--------------|--------------|--------------|-------------||
 ||o-------------|-5------------|-8------7-----|------------o||
 ||--5-----8-----|--------5-----|--------------|-7-----5-----||

[A5]Gtr II[D5] [G5] [C5] [G5] [A5] [G5]
Q. Q E Q. Q. Q. Q E Q. Q.
 
 |-----------|-----------|------------|-----------|
 |-----------|-----------|------------|-----------|
 |------5--9-|-7---------|------4---5-|-----------|
 |-7---------|------9----|-5----------|-7----5----|
 |-----------|-----------|------------|-----------|
 |-----------|-----------|------------|-----------|

|
| Gtr III
| H. Q. Q. Q. Q. Q. Q.
 
 |-----------|-----------|------------|-----------|
 |-----------|-----------|------------|-----------|
 |-----------|-7---------|-5----------|-----------|
 |-7---------|-7----5----|-5----5-----|-7----5----|
 |-7---------|-5----5----|-3----5-----|-7----5----|
 |-5---------|------3----|------3-----|-5----3----|

[A5]Q. Q E [D5]Q. [G5]Q. [C5]Q. [G5]Q E [A5]Q. +Q [G5]E
 
 |-----------|-----------|------------|----------------|
 |-----------|-----------|------------|----------------|
 |------5--9-|-7---------|------4---5-|----------------|
 |-7---------|------9----|-5----------|-7----(7)--5----|
 |-----------|-----------|------------|----------------|
 |-----------|-----------|------------|----------------|

|
| H. Q. Q. Q. Q. Q. +Q E
 
 |-----------|-----------|------------|----------------|
 |-----------|-----------|------------|----------------|
 |-----------|-7---------|-5----------|----------------|
 |-7---------|-7----5----|-5----5-----|-7----(7)--5----|
 |-7---------|-5----5----|-3----5-----|-7----(7)--5----|
 |-5---------|------3----|------3-----|-5----(5)--3----|

[A5]Q. Q E [G5]Q S S [C5]Q E [D5]Q. [G5]Q E [A5]Q. [G5]Q.
 
 |-----------|---------------|------------|-----------|
 |-----------|---------------|------------|-----------|
 |------5--9-|-7---5p4-5---7-|------4-----|-----------|
 |-7---------|---------------|-7--------5-|-7----5----|
 |-----------|---------------|------------|-----------|
 |-----------|---------------|------------|-----------|

|
| H. Q. Q. Q. Q. Q. Q.
 
 |-----------|---------------|------------|-----------|
 |-----------|---------------|------------|-----------|
 |-----------|---------5-----|-7----------|-----------|
 |-7---------|-5-------5-----|-7----5-----|-7----5----|
 |-7---------|-5-------3-----|-5----5-----|-7----5----|
 |-5---------|-3-------------|------3-----|-5----3----|

[A5]Q. Q E [G5]Q S S [C5]Q E [D5]Q. [G5]Q E [A5]Q. [G5]Q.
 
 |------------------|---------------|------------|-----------|
 |------------------|---------------|------------|-----------|
 |------------5---9-|-7---5p4-5---7-|------4-----|-----------|
 |-7----------------|---------------|-7--------5-|-7----5----|
 |------------------|---------------|------------|-----------|
 |------------------|---------------|------------|-----------|

|
| PM----|
| E S S S S Q. Q. Q. Q. Q. Q. Q.
 
 |------------------|---------------|------------|-----------|
 |------------------|---------------|------------|-----------|
 |------------------|---------5-----|-7----------|-----------|
 |-7----------7-----|-5-------5-----|-7----5-----|-7----5----|
 |-7--7-7-7-7-7-----|-5-------3-----|-5----5-----|-7----5----|
 |-5--5-5-5-5-5-----|-3-------------|------3-----|-5----3----|

Interlude 1
[A5]Gtr II[E5F5] [E5] [D5]
E E E E Q E E E S S S S S S
 
 ||------------------------|-----------------------------|
 ||o-----------------------|-----------------------------|
 ||--2---------------------|-----------------------------|
 ||--2-------------3S2-----|-2---------------------------|
 ||o---------------5S3-----|-2-------------5-2h3-2h3-2h3-|
 ||------------------------|-----------------------------|

|
| Gtr III
 
 | PM--------| PM--------|
 | |----6----| |----6----|

| E T T T T T T Q E E E T T T T T T E E E E
 
 ||------------------------|-----------------------------|
 ||o-----------------------|-----------------------------|
 ||------------------------|-----------------------------|
 ||--7-----------------2-3-|-2-------------7-7---7---7---|
 ||o-7-----------------2-3-|-2-------------5-5---5---5---|
 ||--5-5-5-5-5-5-5-----0-1-|-0-0-0-0-0-0-0---------------|

[A5]E E E E [E5F5]Q [E5]E E [D5]E S S S S S S
 
 |-----------------------|-------------------------------||
 |-----------------------|------------------------------o||
 |-2---------------------|-------------------------------||
 |-2-------------3S2-----|-2-----------------------------||
 |---------------5S3-----|-2-------------5-2h3-2h3-5p3--o||
 |-----------------------|-------------------------------||

|
 
 | PM--------| PM--------|
 | |----6----| |----6----|

| E T T T T T T Q E E E T T T T T T E E E E
 
 |-----------------------|-------------------------------||
 |-----------------------|------------------------------o||
 |-----------------------|-------------------------------||
 |-7-----------------2-3-|-2-------------7-7---7---7-----||
 |-7-----------------2-3-|-2-------------5-5---5---5----o||
 |-5-5-5-5-5-5-5-----0-1-|-0-0-0-0-0-0-0-----------------||

Solo
Q.=54
6[A5]/8[Dm]
Gtr I
Q. E. S S S Q T T T T E a E E
 
 |-----------------|-----------------------------------|
 |-----------------|-----------------------------------|
 |---------------9-|-10-----10h12p10p9-10-10h12---10---|
 |------------12---|-----------------------------------|
 |---------12------|-----------------------------------|
 |-----------------|-----------------------------------|

|
| Gtr III Gtr IV
| H. E S S S S E S S S S
 
 |-----------------|--5-5-5--5-----5----5-----5-5--5-5-|
 |-----------------|--6-6-6--6-----6----6-----6-6--6-6-|
 |-2---------------|--7-7-7--7-----7----7-----7-7--7-7-|
 |-2---------------|--7-7-7--7-----7----7-----7-7--7-7-|
 |-0---------------|--5-5-5--5-----5----5-----5-5--5-5-|
 |-----------------|-----------------------------------|

[C]|-3--|[F] [Dm]
S S S E E E Q E. E +Q S S S
 
 |---------------------------------|----------------------------------|
 |---------------------------------|----------------------------------|
 |-9h10p9--------------------------|---------------------------10-12--|
 |--------12---10---10-------------|-12---------------------12--------|
 |---------------------10b12-------|-------10b12---(10)---------------|
 |---------------------------------|----------------------------------|

|
| E S S S S E S S S S E S S S S E S S S S
 
 |-3-------3-3--3-3--1--1----1-1-1-|--5--5--5----5---5--5-5--5--5--5--|
 |-5-------5-5--5-5--1--1----1-1-1-|--6--6--6----6---6--6-6--6--6--6--|
 |-5-------5-5--5-5--2--2----2-2-2-|--7--7--7----7---7--7-7--7--7--7--|
 |-5-------5-5--5-5--3--3----3-3-3-|--7--7--7----7---7--7-7--7--7--7--|
 |-3-------3-3--3-3--3--3----3-3-3-|--5--5--5----5---5--5-5--5--5--5--|
 |-------------------1--1----1-1-1-|----------------------------------|

[F] \0.5/[G] [Dm]
 
 |---3---|

E +E +E E S S S E S S E S S S S S S E
 
 |----------------------------------------|----------------------10----[12]b14r==|
 |-10-(10)------(10)----------------------|-------------------10----13-----------|
 |---------------------12-12h14p==12------|-9------------9-10--------------------|
 |-----------------------------------12---|---12-12---12-------------------------|
 |----------------------------------------|--------------------------------------|
 |----------------------------------------|--------------------------------------|

|
| E S S S S E S S S S E S S S S E S S S S
 
 |--1---1-----1---1--1--3--3----3-----3-3-|-5-----5-5--5-5--5-----5--5---5-----5-|
 |--1---1-----1---1--1--3--3----3-----3-3-|-6-----6-6--6-6--6-----6--6---6-----6-|
 |--2---2-----2---2--2--4--4----4-----4-4-|-7-----7-7--7-7--7-----7--7---7-----7-|
 |--3---3-----3---3--3--5--5----5-----5-5-|-7-----7-7--7-7--7-----7--7---7-----7-|
 |--3---3-----3---3--3--5--5----5-----5-5-|-5-----5-5--5-5--5-----5--5---5-----5-|
 |--1---1-----1---1--1--3--3----3-----3-3-|--------------------------------------|

[C] [F] [Dm]  
 
 |---3---|

+Q T T T T E S S S S S S +S T T T T T T T T T T T T
T T T T T T T T
 
 |-(12)-----8h10p8----8-13-15p13---12----|---------------13-17p13---------------------------------------------------|
 |-----------------12-----------------13-|-15b18r(15)-15----------15------------------------------------------------|
 |---------------------------------------|---------------------------14----------------14-12------------------------|
 |---------------------------------------|------------------------------15----------15-------15-14-12-15-14-12------|
 |---------------------------------------|---------------------------------17-12h17----------------------------15---|
 |---------------------------------------|--------------------------------------------------------------------------|

|
| E S S S S E S S S S E S S S S E
S S S S
 
 |---3--3-3-3----3----1--1--1----1-----1-|--5----------5-----5-----5-----5-----5-----------5-----5-----5-----5------|
 |---5--5-5-5----5----1--1--1----1-----1-|--6----------6-----6-----6-----6-----6-----------6-----6-----6-----6------|
 |---5--5-5-5----5----2--2--2----2-----2-|--7----------7-----7-----7-----7-----7-----------7-----7-----7-----7------|
 |---5--5-5-5----5----3--3--3----3-----3-|--7----------7-----7-----7-----7-----7-----------7-----7-----7-----7------|
 |---3--3-3-3----3----3--3--3----3-----3-|--5----------5-----5-----5-----5-----5-----------5-----5-----5-----5------|
 |--------------------1--1--1----1-----1-|--------------------------------------------------------------------------|

[F] E S X X X X X S.. [G] Q.
 
 |---------------13-17-------17b19---------|
 |------------15---------------------------|
 |---------14------------------------------|
 |------15---------------------------------|
 |-----------------------------------------|
 |-13--------------------------------------|

|
| E S S S S E S S S S
 
 |--1-1--1-----------1-----1--3----3-3-3-3-|
 |--1-1--1-----------1-----1--3----3-3-3-3-|
 |--2-2--2-----------2-----2--4----4-4-4-4-|
 |--3-3--3-----------3-----3--5----5-5-5-5-|
 |--3-3--3-----------3-----3--5----5-5-5-5-|
 |--1-1--1-----------1-----1--3----3-3-3-3-|

Interlude 2
[Am] ~~~~~~~~~~~~~~~~~~~~~~~[G]~~~~~[Em]
H. +Q. Q.
 
 |-17--------------------|-(17)---------------------|
 |-----------------------|--------------------------|
 |-----------------------|--------------------------|
 |-----------------------|--------------------------|
 |-----------------------|--------------------------|
 |-----------------------|--------------------------|

|
| E S S S S E S S S S E S S S S E S S S S
 
 |--0--0-0-0-0-0-0-0-0-0-|---3--3-3-3-3-0--0-0-0-0--|
 |--1--1-1-1-1-1-1-1-1-1-|---3--3-3-3-3-0--0-0-0-0--|
 |--2--2-2-2-2-2-2-2-2-2-|---4--4-4-4-4-0--0-0-0-0--|
 |--2--2-2-2-2-2-2-2-2-2-|---5--5-5-5-5-2--2-2-2-2--|
 |--0--0-0-0-0-0-0-0-0-0-|---5--5-5-5-5-2--2-2-2-2--|
 |-----------------------|---3--3-3-3-3-0--0-0-0-0--|

[Am]Gtr IV[G] [Em]
E S S S S E S S S S E S S S S E S S S S
 
 |-0-0-0-0-0-0-0-0-0-0-|-3-3-3-3-3-0-0-0-0-0-|
 |-1-1-1-1-1-1-1-1-1-1-|-3-3-3-3-3-0-0-0-0-0-|
 |-2-2-2-2-2-2-2-2-2-2-|-4-4-4-4-4-0-0-0-0-0-|
 |-2-2-2-2-2-2-2-2-2-2-|-5-5-5-5-5-2-2-2-2-2-|
 |-0-0-0-0-0-0-0-0-0-0-|-5-5-5-5-5-2-2-2-2-2-|
 |---------------------|-3-3-3-3-3-0-0-0-0-0-|

[Am]E S S S S E S S S S [G]E S S S S [Em]E S S S S
 
 |-0-0-0-0-0-0-0-0-0-0-|-3-3-3-3-3-0-0-0-0-0--|
 |-1-1-1-1-1-1-1-1-1-1-|-3-3-3-3-3-0-0-0-0-0--|
 |-2-2-2-2-2-2-2-2-2-2-|-4-4-4-4-4-0-0-0-0-0--|
 |-2-2-2-2-2-2-2-2-2-2-|-5-5-5-5-5-2-2-2-2-2--|
 |-0-0-0-0-0-0-0-0-0-0-|-5-5-5-5-5-2-2-2-2-2--|
 |---------------------|-3-3-3-3-3-0-0-0-0-0--|

[Am]Gtr IV[G5] [E5]
E S S S S E S S S S E S S S S E S S S S
 
 |-0-0-0-0-0-0-0-0-0-0-|-3--3-3-3-3-0--0-0-0-0-|
 |-1-1-1-1-1-1-1-1-1-1-|-3--3-3-3-3-0--0-0-0-0-|
 |-2-2-2-2-2-2-2-2-2-2-|-4--4-4-4-4-0--0-0-0-0-|
 |-2-2-2-2-2-2-2-2-2-2-|-5--5-5-5-5-2--2-2-2-2-|
 |-0-0-0-0-0-0-0-0-0-0-|-5--5-5-5-5-2--2-2-2-2-|
 |---------------------|-3--3-3-3-3-0--0-0-0-0-|

|
| Gtr III
| W Q. Q.
 
 |---------------------|-----------------------|
 |---------------------|-----------------------|
 |---------------------|-----------------------|
 |---------------------|-5----------2----------|
 |---------------------|-5----------2----------|
 |---------------------|-3----------0----------|

[A5]Gtr II[G5]
Q. Q E Q S S Q E
 
 |----------------------|-----------------|
 |----------------------|-----------------|
 |------------5-----9---|-7-----5p4-4\----|
 |-7--------------------|-----------------|
 |----------------------|-----------------|
 |----------------------|-----------------|

|
 
 | PM----| PM----| PM----|

| E S S S S E S S S S E S S S S Q E
 
 |----------------------|-----------------|
 |----------------------|-----------------|
 |----------------------|-----------------|
 |-7----------7---------|-5---------5-----|
 |-7--7-7-7-7-7-7-7-7-7-|-5-5-5-5-5-5-----|
 |-5--5-5-5-5-5-5-5-5-5-|-3-3-3-3-3-3-----|

Verse
Gtr II
TP TPTP TP TP TPTPTP TP TP TPTPTP TP TP TPTP
Q E Q E E. S E Q E E. S E Q E Q E Q.
 
 ||--------------|--------------|--------------|-------------||
 ||o-----------8-|-6------------|-6------------|------------o||
 ||------7-9-----|----9-7-9---5-|----9-7-9---5-|-----5-------||
 ||--7-----------|--------------|--------------|-9-----7-----||
 ||o-------------|--------------|--------------|------------o||
 ||--------------|--------------|--------------|-------------||

|
| Gtr III
| TP TP TP TP TP TP
| Q. Q. Q. Q. Q. Q. Q. Q.
 
 ||--------------|--------------|--------------|-------------||
 ||o-------------|--------------|--------------|------------o||
 ||--------------|--------------|--------------|-------------||
 ||--------------|--------------|--------------|-------------||
 ||o-------------|-5------------|-8------7-----|------------o||
 ||--5-----8-----|--------5-----|--------------|-7-----5-----||

TP TPTP TP TP TPTPTP TP TP TPTPTP TP TP TPTP
Q E Q E E. S E Q E E. S E Q E Q E Q.
 
 |-----------|-------------|--------------|-------------|
 |---------8-|-6-----------|-6------------|-------------|
 |----7-9----|----9-7-9--5-|----9-7-9---5-|-----5-------|
 |-7---------|-------------|--------------|-9-----7-----|
 |-----------|-------------|--------------|-------------|
 |-----------|-------------|--------------|-------------|

|
| TP TPTP TP TP TPTPTP TP TP TPTPTP
| Q E Q E E. S E Q E E. S E Q. Q. Q.
 
 |-----------|-------------|--------------|-------------|
 |-----------|-------------|--------------|-------------|
 |-----------|-------------|--------------|-------------|
 |---------5-|-------------|--------------|-------------|
 |----5-7----|-8--7-8------|-8--7-8-------|-------------|
 |-5---------|--------5--8-|--------5-----|-7-----5-----|

9/8
TP TPTP TP TP TPTPTP TP TP TPTPTP TP TP TP
Q E Q E E. S E Q E E. S E Q E Q E Q. +W +E
 
 |-----------|-------------|--------------|------------|-----------------|
 |---------8-|-6-----------|-6------------|------------|-----------------|
 |----7-9----|----9-7-9--5-|----9-7-9---5-|-----5------|-----------------|
 |-7---------|-------------|--------------|-9-----7----|-(7)--------(7)--|
 |-----------|-------------|--------------|------------|-----------------|
 |-----------|-------------|--------------|------------|-----------------|

|
| TP TPTP TP TP TPTPTP TP TP TPTPTP
| Q E Q E E. S E Q E E. S E Q. Q. Q. +W +E
 
 |-----------|-------------|--------------|------------|-----------------|
 |-----------|-------------|--------------|------------|-----------------|
 |-----------|-------------|--------------|------------|-----------------|
 |---------5-|-------------|--------------|-------7----|-(7)--------(7)--|
 |----5-7----|-8--7-8------|-8--7-8-------|-------7----|-(7)--------(7)--|
 |-5---------|--------5--8-|--------5-----|-7-----5----|-(5)--------(5)--|

Interlude 3
Q.=70
6[A5]/8[E5] [D5] [C5] [G5]
Gtr II G
E Q +Q. E Q +Q. E Q +Q. E Q E Q
 
 |------------|------------|------------|-----------|
 |------------|------------|------------|-----------|
 |------------|------------|-7-7--(7)---|-5-5-------|
 |-7-7--(7)---|-2-2--(2)---|-7-7--(7)---|-5-5--5-5--|
 |-7-7--(7)---|-2-2--(2)---|-5-5--(5)---|-3-3--5-5--|
 |-5-5--(5)---|-0-0--(0)---|------------|------3-3--|

t[A5]rs II, III[E5] [D5] [C5] [G5]
E Q +Q. E Q +Q. E Q +Q. E Q E Q
 
 |------------|------------|------------|-------------|
 |------------|------------|------------|-------------|
 |------------|------------|-7-7--(7)---|-5-5---------|
 |-7-7--(7)---|-2-2--(2)---|-7-7--(7)---|-5-5--5-5----|
 |-7-7--(7)---|-2-2--(2)---|-5-5--(5)---|-3-3--5-5----|
 |-5-5--(5)---|-0-0--(0)---|------------|------3-3----|

[A5]E Q +Q. [E5]E Q +Q. [D5]E Q +Q. [C5]Q. [G5]Q. 4x
 
 ||-------------|------------|------------|------------||
 ||o------------|------------|------------|-----------o||
 ||-------------|------------|-7-7--(7)---|-5----------||
 ||--7-7--(7)---|-2-2--(2)---|-7-7--(7)---|-5----5-----||
 ||o-7-7--(7)---|-2-2--(2)---|-5-5--(5)---|-3----5----o||
 ||--5-5--(5)---|-0-0--(0)---|------------|------3-----||
 PM------------------------------------------------------------------|

S S S E S E E E S S S E S E E E S S S E S E E E S S S E S E E E
 
 |-----------------|-----------------|-----------------|-----------------|
 |-----------------|-----------------|-----------------|-----------------|
 |-----------------|-----------------|-----------------|-----------------|
 |-----------------|-----------------|-----------------|-----------------|
 |-----------------|-----------------|-----------------|-----------------|
 |-5-5-5-5-5-5-5-5-|-5-5-5-5-5-5-5-5-|-5-5-5-5-5-5-5-5-|-5-5-5-5-5-5-5-5-|
 PM------------------------------------------------|

S S S E S E E E S S S E S E E E S S S E S E E E Q. Q.
 
 |-----------------|-----------------|-----------------|-----------|
 |-----------------|-----------------|-----------------|-----------|
 |-----------------|-----------------|-----------------|-5---------|
 |-----------------|-----------------|-----------------|-5----5----|
 |-----------------|-----------------|-5-5-5-5-5-5-5-5-|-3----5----|
 |-5-5-5-5-5-5-5-5-|-0-0-0-0-0-0-0-0-|-----------------|------3----|

Outro
[A5]Gtr II[E5] [D5] [C5] [G5]
Q. E E E Q. +E E E Q. E E E E. S E Q.
 
 ||-------------|--------------|------------|-------------|
 ||o------------|--------------|------6-5-3-|-------------|
 ||-------5-4---|------------4-|-7----------|-5--4-2-4----|
 ||--7--------7-|-5----(5)-7---|------------|-------------|
 ||o------------|--------------|------------|-------------|
 ||-------------|--------------|------------|-------------|

|
| Gtr III
| H. H. H. Q. Q.
 
 ||-------------|--------------|------------|-------------|
 ||o------------|--------------|------------|-------------|
 ||-------------|--------------|-7----------|-5-----------|
 ||--7----------|-2------------|-7----------|-5------5----|
 ||o-7----------|-2------------|-5----------|-3------5----|
 ||--5----------|-0------------|------------|--------3----|

[A5]Q. E E E [E5]Q. +E E E [D5]Q. +E E E [C5]E. S E [G5]Q.
 
 |------------|--------------|--------------|---------------||
 |------------|--------------|--------------|--------------o||
 |------5-4---|------------4-|-7----(7)-5-4-|-5--4-2-4------||
 |-7--------7-|-5----(5)-7---|--------------|---------------||
 |------------|--------------|--------------|--------------o||
 |------------|--------------|--------------|---------------||

|
| H. H. H. Q. Q.
 
 |------------|--------------|--------------|---------------||
 |------------|--------------|--------------|--------------o||
 |------------|--------------|-7------------|-5-------------||
 |-7----------|-2------------|-7------------|-5------5------||
 |-7----------|-2------------|-5------------|-3------5-----o||
 |-5----------|-0------------|--------------|--------3------||

[A5]Gtr I[E5] [D5] [C5] [G5]
Q. E E E Q. +E E E Q. E E E E. S E Q.
 
 ||-------------|--------------|------------|-------------|
 ||o------------|--------------|------6-5-3-|-------------|
 ||-------5-4---|------------4-|-7----------|-5--4-2-4----|
 ||--7--------7-|-5----(5)-7---|------------|-------------|
 ||o------------|--------------|------------|-------------|
 ||-------------|--------------|------------|-------------|

|
| Gtr II
| Q. E E E Q. +E E E Q. E E E E. S E Q.
 
 ||-------------|--------------|------------|-------------|
 ||o------------|--------------|------6-5-3-|-5--3-1-3----|
 ||-------5-4---|-4----(4)---4-|-7----------|-------------|
 ||--7--------7-|----------7---|------------|-------------|
 ||o------------|--------------|------------|-------------|
 ||-------------|--------------|------------|-------------|

|
| Gtr III
| H. H. H. Q. Q.
 
 ||-------------|--------------|------------|-------------|
 ||o------------|--------------|------------|-------------|
 ||-------------|--------------|-7----------|-5-----------|
 ||--7----------|-2------------|-7----------|-5------5----|
 ||o-7----------|-2------------|-5----------|-3------5----|
 ||--5----------|-0------------|------------|--------3----|

[A5]Q. E E E [E5]Q. +E E E [D5]Q. +E E E [C5]E. S E [G5]Q. 3x
 
 |------------|--------------|--------------|---------------||
 |------------|--------------|--------------|--------------o||
 |------5-4---|------------4-|-7----(7)-5-4-|-5--4-2-4------||
 |-7--------7-|-5----(5)-7---|--------------|---------------||
 |------------|--------------|--------------|--------------o||
 |------------|--------------|--------------|---------------||

|
| Q. E E E Q. +E E E Q. +E E E E. S E Q. 3x
 
 |------------|--------------|--------------|---------------||
 |------------|--------------|----------5-3-|-5--3-1-3-----o||
 |------5-4---|-4----(4)---4-|-7----(7)-----|---------------||
 |-7--------7-|----------7---|--------------|---------------||
 |------------|--------------|--------------|--------------o||
 |------------|--------------|--------------|---------------||

|
| H. H. H. Q. Q. 3x
 
 |------------|--------------|--------------|---------------||
 |------------|--------------|--------------|--------------o||
 |------------|--------------|-7------------|-5-------------||
 |-7----------|-2------------|-7------------|-5------5------||
 |-7----------|-2------------|-5------------|-3------5-----o||
 |-5----------|-0------------|--------------|--------3------||

[A5]Q. E E E [E5]Q. +E E E [D5]Q. E E E [D5]E. S E [G5]Q.
 
 |------------|--------------|------------|--------------*|
 |------------|--------------|------6-5-3-|--------------*|
 |------5-4---|------------4-|-7----------|-5--4-2-4-----*|
 |-7--------7-|-5----(5)-7---|------------|--------------*|
 |------------|--------------|------------|--------------*|
 |------------|--------------|------------|--------------*|

|
| Q. E E E Q. +E E E Q. E E E E. S E Q.
 
 |------------|--------------|------------|--------------*|
 |------------|--------------|------6-5-3-|-5--3-1-3-----*|
 |------5-4---|-4----(4)---4-|-7----------|--------------*|
 |-7--------7-|----------7---|------------|--------------*|
 |------------|--------------|------------|--------------*|
 |------------|--------------|------------|--------------*|

|
| H. H. H. Q. Q.
 
 |------------|--------------|------------|--------------*|
 |------------|--------------|------------|--------------*|
 |------------|--------------|-7----------|-5------------*|
 |-7----------|-2------------|-7----------|-5------5-----*|
 |-7----------|-2------------|-5----------|-3------5-----*|
 |-5----------|-0------------|------------|--------3-----*|

Duration Legend
 
 ---------------
 W - whole; H - half; Q - quarter; E - 8th; S - 16th; T - 32nd; X - 64th; a - acciaccatura

+ - note tied to previous; . - note dotted; .. - note double dotted
Uncapitalized letters represent notes that are staccato (1/2 duration)
Irregular groupings are notated above the duration line
Duration letters will always appear directly above the note/fret number it represents the
duration for. Duration letters with no fret number below them represent rests. Multi-
bar rests are notated in the form Wxn, where n is the number of bars to rest for. Low
melody durations appear below the staff
Tablature Legend
 
 ----------------

h - hammer-on
p - pull-off
b - bend
pb - pre-bend
r - bend release (if no number after the r, then release immediately)
/\ - slide into or out of (from/to "nowhere")
s - legato slide
S - shift slide
<n> - natural harmonic
(n) - artificial harmonic
n(n) - tapped harmonic
~ - vibrato
tr - trill
T - tap
TP - trem. picking
PM - palm muting
\n/ - tremolo bar dip; n = amount to dip
\n - tremolo bar down
n/ - tremolo bar up
/n\ - tremolo bar inverted dip
= - hold bend; also acts as connecting device for hammers/pulls
<> - volume swell (louder/softer)
x - on rhythm slash represents muted slash
o - on rhythm slash represents single note slash
Misc Legend
 
 -----------

| - bar
|| - double bar
||o - repeat start
o|| - repeat end
*| - double bar (ending)
: - bar (freetime)
$ - Segno
& - Coda
Tempo markers - <E/E./Q/Q./H/H.> = BPM(8/16=s8/s16), where s8 = swing 8ths, s16 = swing 16ths

Important: The song above is NOT stored on the Chordie server. The original song is hosted at www.azchords.com. Chordie works as a search engine and provides on-the-fly formatting. Chordie does not index songs against artists'/composers' will. To remove this song please click here.

Text color:
Chord color:
Chord grids: 
Font size:    
Page size: 

A5 Am C C5 D5 Dm E5 Em F G G5
Rate #1 of 1 versions

Jango Player

Login - add to songbook

SHARE PAGE  




You need to log in to post comments