Guitar Tabs, Chords and Lyrics
Update 25:10. 13:00. Site is back up running again. Songbooks are recovered. Woring on getting search back up..


Para Sa Masa  Eraserheads

PARA SA MASA
ERASERHEAD
___ferdz____
Ensayo lang tsaka kailangan alam nyo yung tunog at makukuha nyo rin ito ge tol enjoy!!!
INTRO:
GUITAR 1:
[C] [Csus] [Am9]  
 
 e|----------0-----------3??--0------|----------0-----5---5---3---0-----|
 B|----1-----1--------1---------1---|----0-----0-----------------------|
 G|----0-----------0----------------|----0--------0--------------------|
 D|-------2-----2-------------------|-------2--------------------------|
 A|----3----------------------------|----------------------------------|
 E|---------------------------------|----0-----------------------------|

(Repeat 3x)
[C] [Csus] [Am9]  
 
 e|----------0-----------3??--0------|---------0-------------3---0------|
 B|----1-----1--------1---------1---|---0-----0----------0-------------|
 G|----0-----------0----------------|---0------------0-------------0---|
 D|-------2-----2-------------------|------2-----2---------------------|
 A|----3----------------------------|----------------------------------|
 E|---------------------------------|---0------------------------------|

I
[C] [Am9]  
 
 e|-------------0-------------------|------------0---------------------|
 B|----1--------1------------1------|---0--------0----------0----------|
 G|----0-------------0----------0---|---0------------0-----------0-----|
 D|--------2-------------2----------|--------2-----------2-------------|
 A|----3----------------------------|----------------------------------|
 E|---------------------------------|---0------------------------------|

(Repeat 4x)
Ito ay para sa mga masa
Sa lahat ng nawalan ng pag-asa
Sa lahat ng aming nakasama
Sa lahat ng hirap at pagdurusa. . .
[FM7] [G]  
 
 e|---------------0-----------------|---------------3------------------|
 B|----1----------1--------1--------|----0----------0----------0-------|
 G|----2-------------2---------2----|----0--------------0----------0---|
 D|--------3------------3-----------|--------0--------------0----------|
 A|------------0--------------------|------------2---------------------|
 E|----0----------------------------|----3-----------------------------|

Naaalala nyo pa ba???
[D] [Dsus]  
 
 e|----2---------2----------2-------|----3-----3------5---3---2-------|
 B|----3---------3----------3-------|----3-----3------5----------0----|
 G|--------2---------2----------2---|-------2-----2-------------------|
 D|----0------0---------0-----------|---------------------------------|
 A|---------------------------------|---------------------------------|
 E|---------------------------------|---------------------------------|

[FM7] [G]  
 
 e|---------------0-----------------|---------------3------------------|
 B|----1----------1--------1--------|----0----------0----------0-------|
 G|----2-------------2---------2----|----0--------------0----------0---|
 D|--------3------------3-----------|--------0--------------0----------|
 A|------------0--------------------|------------2---------------------|
 E|----0----------------------------|----3-----------------------------|

Binigyan namin kayo ng. . .
[D] [Dsus] [Dm9]  
 
 e|-----2---------2----------3------|----0------0------0---------------|
 B|-----3---------3----------3------|----2------2------2------2--------|
 G|---------2---------2-------------|--------2-----2-------2------0----|
 D|-----0------0---------0----------|----------------------------------|
 A|---------------------------------|----0-----------------------------|
 E|---------------------------------|----------------------------------|

ligaya. . .
GUITAR 2:Strumming one chords one down (C-Em 4x)
[C] [Em]  
 
 e|--------------0------------------|-------------0--------------------|
 B|----1---------1-----------1------|---0---------0---------0----------|
 G|----0-------------0----------0---|---0-------------0----------0-----|
 D|--------2--------------2---------|-------2-------------2------------|
 A|----3------3---------------------|----------2-----------------------|
 E|---------------------------------|---0------------------------------|

(Repeat 4x)
Ilang taon na rin ang lumipas
Mga kulay ng mundo ay kumupas
Marami narin ang mga pagbabago
Di maiiwasan pagkat tayo ay tao lamang. . .
 
 GUITAR 2:(F-G-D-Dsus-F-G-D-Dsus-A)

[FM7] [G]  
 
 e|---------------0-----------------|---------------3------------------|
 B|----1----------1--------1--------|----0----------0----------0-------|
 G|----2-------------2---------2----|----0--------------0----------0---|
 D|--------3------------3-----------|--------0--------------0----------|
 A|------------0--------------------|------------2---------------------|
 E|----0----------------------------|----3-----------------------------|

Mapapatawad mo ba ako???
[D] [Dsus]  
 
 e|----2---------2---------------2--|--3------------3/5---3---2--------|
 B|----3---------3----------3-------|-----3-----3-----------------0----|
 G|--------2---------2--------------|--------2-------------------------|
 D|----0------0---------0-----------|----------------------------------|
 A|---------------------------------|----------------------------------|
 E|---------------------------------|----------------------------------|

[FM7] [G]  
 
 e|---------------0-----------------|---------------3------------------|
 B|----1----------1--------1--------|----0----------0----------0-------|
 G|----2-------------2---------2----|----0--------------0----------0---|
 D|--------3------------3-----------|--------0--------------0----------|
 A|------------0--------------------|------------2---------------------|
 E|----0----------------------------|----3-----------------------------|

Kung hindi ko sinunod ang. . .
[D] [Dsus] [Dm9]  
 
 e|-----2---------2----------3------|----0------0------0---------------|
 B|-----3---------3----------3------|----2------2------2------2--------|
 G|---------2---------2----------0--|--------2-----2-------2------0----|
 D|-----0------0---------0----------|----------------------------------|
 A|---------------------------------|----0-----------------------------|
 E|---------------------------------|----------------------------------|

Gusto mo. . .
Guitar 2:(C-Em 4x)
[C] [Em]  
 
 e|--------------0------------------|--------------0-------------------|
 B|----1---------1-----------1------|---0----------0----------0--------|
 G|----0-------------0----------0---|---0--------------0-----------0---|
 D|--------2-------------2----------|-------2--------------2-----------|
 A|----3------3---------------------|-----------2----------------------|
 E|---------------------------------|---0------------------------------|

(repeat 4x)
Lalalala. . .lalalala. . .
 
 GUITAR 2:(F-G-D-Dsus-F-G-D-Dsus-A)

[FM7] [G]  
 
 e|---------------0-----------------|---------------3------------------|
 B|----1----------1--------1--------|----0----------0----------0-------|
 G|----2-------------2---------2----|----0--------------0----------0---|
 D|--------3------------3-----------|--------0--------------0----------|
 A|------------0--------------------|------------2---------------------|
 E|----0----------------------------|----3-----------------------------|

pinilit kong iahon ka. . .Yeah!!!
[D] [Dsus]  
 
 e|----2---------2---------------2--|--3------------3/5---3---2--------|
 B|----3---------3----------3-------|-----3-----3-----------------0----|
 G|--------2---------2--------------|--------2-------------------------|
 D|----0------0---------0-----------|----------------------------------|
 A|---------------------------------|----------------------------------|
 E|---------------------------------|----------------------------------|

[FM7] [G]  
 
 e|---------------0-----------------|---------------3------------------|
 B|----1----------1--------1--------|----0----------0----------0-------|
 G|----2-------------2---------2----|----0--------------0----------0---|
 D|--------3------------3-----------|--------0--------------0----------|
 A|------------0--------------------|------------2---------------------|
 E|----0----------------------------|----3-----------------------------|

Ngunit ayaw mo namang. . .
[D] [Dsus] [Dm9]  
 
 e|-----2----------2---------3------|----0------0------0---------------|
 B|-----3----------3---------3------|----2------2------2------2--------|
 G|---------2-----------2--------0--|--------2-----2-------2------0----|
 D|-----0------0--------------------|----------------------------------|
 A|---------------------------------|----0-----------------------------|
 E|---------------------------------|----------------------------------|

Sumama. . .
II
Guitar 2:(C-Em 12x)
[C] [Em]  
 
 e|--------------0------------------|--------------0-------------------|
 B|----1---------1-----------1------|---0----------0----------0--------|
 G|----0-------------0----------0---|---0--------------0-----------0---|
 D|--------2-------------2----------|-------2--------------2-----------|
 A|----3------3---------------------|-----------2----------------------|
 E|---------------------------------|---0------------------------------|

(Repeat 12x)
Ito ay para sa mga masa
Sa lahat ng binaon ng sistema
Sa lahat ng aming nakabarkada
Sa lahat ng mahilig sa lovesong at drama
Sa lahat ng di marunong bumasa
Sa lahat ng may problema sa skwela
Sa lahat ng fans ni sharon cuneta
Sa lahat ng may problema sa pera
Sa lahat ng masa (Sa lahat ng masa)4x
 
 GUITAR 2:(F-G-D-Dsus-F-G-D-Dsus-A)

[FM7] [G]  
 
 e|---------------0-----------------|---------------3------------------|
 B|----1----------1--------1--------|----0----------0----------0-------|
 G|----2-------------2---------2----|----0--------------0----------0---|
 D|--------3------------3-----------|--------0--------------0----------|
 A|------------0--------------------|------------2---------------------|
 E|----0----------------------------|----3-----------------------------|

Huwag mong hayaang ganito. . .
[D] [Dsus]  
 
 e|----2---------2---------------2--|--3------------3/5---3---2--------|
 B|----3---------3----------3-------|-----3-----3-----------------0----|
 G|--------2---------2--------------|--------2-------------------------|
 D|----0------0---------0-----------|----------------------------------|
 A|---------------------------------|----------------------------------|
 E|---------------------------------|----------------------------------|

[FM7] [G]  
 
 e|---------------0-----------------|---------------3------------------|
 B|----1----------1--------1--------|----0----------0----------0-------|
 G|----2-------------2---------2----|----0--------------0----------0---|
 D|--------3------------3-----------|--------0--------------0----------|
 A|------------0--------------------|------------2---------------------|
 E|----0----------------------------|----3-----------------------------|

Bigyan ang sarili ng. . .
[D] [Dsus] [Dm9]  
 
 e|-----2----------2---------3------|----0------0------0---------------|
 B|-----3----------3---------3------|----2------2------2------2--------|
 G|---------2-----------2--------0--|--------2-----2-------2------0----|
 D|-----0------0--------------------|----------------------------------|
 A|---------------------------------|----0-----------------------------|
 E|---------------------------------|----------------------------------|

Respeto. . .
Guitar 2:(C-Em)
[C] [Em]  
 
 e|--------------0------------------|--------------0-------------------|
 B|----1---------1-----------1------|---0----------0----------0--------|
 G|----0-------------0----------0---|---0--------------0-----------0---|
 D|--------2-------------2----------|-------2--------------2-----------|
 A|----3------3---------------------|-----------2----------------------|
 E|---------------------------------|---0------------------------------|

Lalalala. . .lalalala (Fade)

Important: The song above is NOT stored on the Chordie server. The original song is hosted at www.azchords.com. Chordie works as a search engine and provides on-the-fly formatting. Chordie does not index songs against artists'/composers' will. To remove this song please click here.

Text color:
Chord color:
Chord grids: 
Font size:    
Page size: 

Am9 C Csus D Dm9 Dsus Em Fm7 G
Rate #1 of 5 versions

Jango Player

Login - add to songbook

SHARE PAGE  




You need to log in to post comments