Guitar Tabs, Chords and Lyrics
Update 25:10. 13:00. Site is back up running again. Songbooks are recovered. Woring on getting search back up..


Trip to Jerusalem  Eraserheads

Intro:
 
 E|-----------------------------|
 B|-----------------------------|
 G|-----7-7-7-7-----------------|
 D|-----7-7-7-7-----------------|
 A|-----5-5-5-5-----------------|
 E|-----------------------------|

Verse:
 
 E|----------0-------0---------0---------0------0--------0-----0h2----|
 B|-------3-------3----3-----3---------3-----3----3----3----3------3--|
 G|----2-------2-----------2--------2-----2----------2----------------|
 D|-------------------------------------------------------------------|
 A|-------------------------------------------------------------------|
 E|-------------------------------------------------------------------|
 E|----------0-------0---------0----------0-------0---------0-----------|
 B|-------3-------3----3-----3----------3------3-----3----3-------------|
 G|----2-------2-----------2----------2------2----------2---------------|
 D|---------------------------------------------------------------------|
 A|---------------------------------------------------------------------|
 E|---------------------------------------------------------------------|

Open your door, Dance on the floor...
Refrain:
 
 E|-----------------------------------------------------------------|
 B|---3??--0---2---2-2-2??0---0-0??-3??0??2---2-2-2-0-0-0??-3??0??2---2-2-2-|
 G|-----------------------------------------------------------------|
 D|-----------------------------------------------------------------|
 A|-----------------------------------------------------------------|
 E|-----------------------------------------------------------------|

It never ends, it never ends, it never ends...
Chorus:
[D] [A]  
 
 E|------------------------------------------------------------------|
 B|------------------------------------------------------------------|
 G|--------------------7-------------------------4-------------------|
 D|--------------------7-------------------------7-------------------|
 A|--------------------5-------------------------7-------------------|
 E|----------------------------------------------5-------------------|

Oh tell me do you want to fly, fly high way up in the sky
[G] [D] [A]  
 
 E|------------------------------------------------------------------|
 B|------------------------------------------------------------------|
 G|--------------------------------------------7---------------------|
 D|----------------------5---------------------7---------7-----------|
 A|----------------------5---------------------5---------7-----------|
 E|----------------------3-------------------------------5-----------|

Or maybe you don't even have to try; all you have to do is follow the star
[D] [A]  
 
 E|------------------------------------------------------------------|
 B|------------------------------------------------------------------|
 G|--------------------7-------------------------4-------------------|
 D|--------------------7-------------------------7-------------------|
 A|--------------------5-------------------------7-------------------|
 E|----------------------------------------------5-------------------|

But when the star doesn't shine, you won't be able to find your way
[G] [D] [A]  
 
 E|------------------------------------------------------------------|
 B|------------------------------------------------------------------|
 G|--------------------------------------------7---------------------|
 D|----------------------5---------------------7---------------------|
 A|----------------------5---------------------5---------------------|
 E|----------------------3-------------------------------------------|

And the wise man will still remain the king of trip to Jerusalem
Verse 2:
 
 E|----------0-------0---------0---------0-------0--------0-----0h2----|
 B|-------3-------3----3-----3---------3------3----3----3----3------3--|
 G|----2-------2-----------2--------2------2----------2----------------|
 D|--------------------------------------------------------------------| 4x
 A|--------------------------------------------------------------------|
 E|--------------------------------------------------------------------|
 E|----------0-------0---------0----------0-------0---------0-----------|
 B|-------3-------3----3-----3----------3------3-----3----3-------------|
 G|----2-------2-----------2----------2------2----------2---------------|
 D|---------------------------------------------------------------------|
 A|---------------------------------------------------------------------|
 E|---------------------------------------------------------------------|

Sometimes you win, sometimes you fail...
Repeat Refrain and chorus
Bridge:
T[Bm]he music plays like a heav[F#m]enly choir
Lo[G]vely chairs are the[A]re if you get tired[D]
D[Bm]on't listen to a word he s[F#m]ays
He[G]'s just trying to distract you
D[A]o your own thing and st[Bm]ick with what you wan[D-Em7-D-Em7-D-Em7]t
 
 E|----------0-------0---------0----------0-------0---------0-----------|
 B|-------3-------3----3-----3----------3------3-----3----3-------------|
 G|----2-------2-----------2----------2------2----------2---------------|
 D|---------------------------------------------------------------------|
 A|---------------------------------------------------------------------|
 E|---------------------------------------------------------------------|

Open your drawer, dance on the floor...
 
 E|----------0-------0---------0---------0-------0--------0-----0h2----|
 B|-------3-------3----3-----3---------3------3----3----3----3------3--|
 G|----2-------2-----------2--------2------2----------2----------------|
 D|--------------------------------------------------------------------|
 A|--------------------------------------------------------------------|
 E|--------------------------------------------------------------------|

Only one chair, who will sit there...
Repeat refrain & chorus
Outro:
On[D] a trip to Jeru[G]salem (4x)
That's it! Paki-rate na lang...

Important: The song above is NOT stored on the Chordie server. The original song is hosted at www.azchords.com. Chordie works as a search engine and provides on-the-fly formatting. Chordie does not index songs against artists'/composers' will. To remove this song please click here.

Text color:
Chord color:
Chord grids: 
Font size:    
Page size: 

A Bm D F#m G
Rate #1 of 7 versions

Login - add to songbook

SHARE PAGE  



You need to log in to post comments