Guitar Tabs, Chords and Lyrics
Server problems seems to be fixed. Chordie has been experiencing problems with songs disappearing. These issues now seems to be fixed, but still verifying the fix. If you find anything strange, please email admin@chordie.com.


Me and the Devil Blues  Eric Clapton

Intro
Moderately Q=92(8=s8)
A7 A°7 Dm6 N.C.A A7/G D/F#Dm/F
[4/4] Gtr I (Ac. Gtr.)[2/4] [4/4]
~~ ~~
 
 |-3-| |-3-| |-3-|

H Q E E Q. E Q. E E E E e E E E E E E E E E E E
 
 |--------------|-9----9-8----8-|-7-7---7---|--5----5-5---5-5-5-5----|
 |--------------|-8----8-7------|-6-----6---|------------------------|
 |-----------/9-|--------8------|-7---7-----|------------------------|
 |--------------|---------------|-----------|-------5---5-4---3---3--|
 |--------------|---------------|---------0-|-(0)-0------------------|
 |--------------|---------------|-----------|------------------------|

1st & 2nd Verses
E7 A7 A°7
 
 |-3-| |-3-| |-3-|

E a E E E E e E e E Q E E E Q Q Q Q Q E E E
 
 |-0-----0---0-0-0------||-----------------|------------0---|
 |---------3-----3---/5-||o----------5--5--|-4--------4---4-|
 |---------------1---/6-||---------6----6--|-6--------5---5-|
 |-2-0h1-------------/5-||-------5------5--|-4--------------|
 |----------------------||o-0--0-----0--0--|-0--0--0--------|
 |-----0-------0---0----||-----------------|----------5-----|

A7 A°7 A7 A°7 A7 D7/F#
|-3-| |-3-|
E E E E E E E E E E E E E E E E E E e E e E q e E
 
 |---0---------------|-------------------|-------2------2-|
 |-5-----5-4-5-------|-5-5-4-4-5-5-------|---1---1------1-|
 |-6-------5---------|-6---5---6---------|---2----------2-|
 |-5-------4-----4---|-5---4---5-----5---|---0------------|
 |-0---0---0---0---0-|-0---0---0---0-----|----------------|
 |-------------------|-----------------0-|-2---2---2--2---|

A7 A°7 A7
 
 |-3-| |-3-| |-3-|

e E E E q e E Q E E E E E E E E E E E E E E e E E
 
 |-------2---------|------------------|---------0------------|
 |---1-------------|-5----5-4-5-------|-5-5---4---5-5--------|
 |---2----------/6-|-6----6-5-----5---|-6---5-----6-----0----|
 |--------------/5-|--------4-----4---|-5---4-----5-------2--|
 |-----------------|-0--0---0---0---0-|-0---0-----0---0------|
 |-2---2---2--2----|------------------|----------------------|

[E7] [D7/F#] |-3-|[A] [A7/GD/F#Dm/F]
q E E E E e E E E E E E E E E E E E E E E E E E
 
 |--------0-0-----|---2---------2-----|-----5---5---5---|
 |----3-3-3-3-----|-1---------1-------|-----------------|
 |----1-1-1-1-----|-2-------2---------|-----------------|
 |-2--------------|-0-----0---------2-|-----5-5-4-4-3-3-|
 |----------------|-------------------|-0-0-------------|
 |-0--0---0---0-2-|-----2-----2---2---|-----------------|

3rd Verse
E7 A7 A°7
 
 |-3-| |-3-| |-3-|

E a E E E E e E E E Q E E E Q Q Q Q Q E E E
 
 |-0-----0---0-0-0------||----------------|------------0---|
 |---------3-----3-----o||----------5--5--|-4--------4---4-|
 |---------------1---6--||--------6----6--|-6--------5---5-|
 |-2-0h1-------------5--||------5------5--|-4--------------|
 |-------------2-------o||-0--0--------0--|-0--0--0--------|
 |-----0-----------0----||----------5-----|----------5-----|

A7 A°7 A7 A°7 A7 D7/F#
|-3-| |-3-|
E E E E E E E E E E E E E E E E E E e E e E q e E
 
 |---0---------------|-------------------|-------2----2---|
 |-5-----5-4-5-------|-5-5-4-4-5-5-------|---1--------1-0-|
 |-6-------5---------|-6---5---6---------|---2--------2-2-|
 |-5-------4-----4---|-5---4---5-----5---|---0------------|
 |-0---0---0---0---0-|-0---0---0---0-----|----------------|
 |-------------------|-----------------0-|-2---2---2--2---|

[A7] [A] [E7]  
 
 |-3-| |-3-| |-3-|

e E E E q e E Q E E E E E E E E E E E E E E e E E Q E E E E E E
 
 |-------2---------|------------------|---------0-----------|--------0-0-----|
 |---1-------------|-5----5-4-5-------|-5-5---4---5-5-------|------3-3-3-----|
 |---2----------/6-|-6----6-5-----5---|-6---5-----6-----0---|-1----1---1-----|
 |--------------/5-|--------4-----4---|-5---4-----5-------2-|----------------|
 |-----------------|-0--0---0---0---0-|-0---0-----0---0-----|----------------|
 |-2---2---2--2----|------------------|---------------------|-0--0---0---0-2-|

[D7/F#] [A] [A7/GD/FDm/F] |-3-| |-3-|
E E e E e E e E E E E E Q E E E E a E E E E E E E E
 
 |---2-----2-2-----|-----5---5--5-5---|-0-----0---0-0-0---9--||
 |-1-----1---------|------------------|---------3---3-3---8--||
 |-2---------------|------------------|-------------1-----9--||
 |-0---------------|-----5-5-4--3---3-|-2-0h1----------------||
 |---------------0-|-0----------------|----------------------||
 |-----2---2---2---|------------------|-----0-------0---0----||

Guitar & Harmonica Solo
A7 A°7 A7
|-3-| |-3-|
E E E E E E E E E E E E E E E E E E E E E E E E Q
 
 |-9-9-9-9-9-9-9---9-|-8-8---8-8-8---8-|-9-9-9-9-9-9-9----|
 |-8-8-8-8-8-8-8---8-|-7-7---7-7-7---7-|-8-8-8-8-8-8-8----|
 |-9-----9---9-----9-|-8-------8-------|-9-----9---9------|
 |-------------------|-----------------|------------------|
 |-0-----0---0---0---|-0---0---0---0---|-0-----0---0---0--|
 |-------------------|-----------------|------------------|

A°7 A7 D7/F#
|-3-|
E E E E E E E E E e E e E q e E e E E E q e E
 
 |-9-9-9-8-8-9-9-------|-------2------2-|-------2---------|
 |-8-8-8-7-7-8-8-------|---1---1------1-|---1-------------|
 |-9-----8-8-9-9-------|---2----------2-|---2----------/6-|
 |---------------------|---0------------|--------------/5-|
 |-0-----0---0---0-(0)-|----------------|-----------------|
 |------------------2--|-2---2---2--2---|-2---2---2--2----|

A7 A°7 A7 E7
 
 |-3-| |-3-| |-3-|

Q E E E E E E E E E E E E E E e E E q E E E E e E
 
 |------------------|---------0-----------|--------0-0------|
 |-5----5-4-5-------|-5-5---4---5-5-------|----3-3-3-3------|
 |-6----6-5-----5---|-6---5-----6-----0---|----1-1-1-1------|
 |--------4-----4---|-5---4-----5-------2-|-2---------------|
 |-0--0---0---0---0-|-0---0-----0---0-----|-----------------|
 |------------------|---------------------|-0--0---0---0-2--|

[D7/F#] |-3-| [A] [A7/GD/F#Dm/F] [E7] |-3-|
E E E E E E E E E E E E E E E E E E a E E E E e E E E
 
 |---2---------2-----|-----5---5---5---|-0-----0---0-0-0------||
 |-1---------1-------|-----------------|---------3-----3------||
 |-2-------2---------|-----------------|---------------1---6--||
 |-0-----0---------2-|-----5-5-4-4-3-3-|-2-0h1-------------5--||
 |-------------------|-0-0-------------|-------------2--------||
 |-----2-----2---2---|-----------------|-----0-----------0----||

4th Verse
A°7 A7 A°7
 
 |-3-| |-3-| |-3-|

Q E E E Q Q Q Q Q E E E E E E E E E E E E
 
 |----------------|------------0---|---0----------------|
 |----------5--5--|-4--------4---4-|-5-----5-4-5--------|
 |--------6----6--|-6--------5---5-|-6-------5----------|
 |------5------5--|-4--------------|-5-------4-----4----|
 |-0--0-----0--0--|-0--0--0--------|-0---0---0---0---0--|
 |----------------|----------5-----|--------------------|

A7 A°7 A7 D7/F#
|-3-|
E E E E E E E E E e E e E q e E E E q e E e E
 
 |-------------------|-------2----2---|---2------------|
 |-5-5-4-4-5-5-------|---1--------1-0-|-1--------------|
 |-6---5---6---------|---2--------2-2-|-2------------0-|
 |-5---4---5-----5---|---0------------|-0------------0-|
 |-0---0---0---0-----|----------------|----------------|
 |-----------------0-|-2---2---2--2---|-2---2--2-0-2---|

[A7]E E E E a E E E E [A]E E e E E E Q [E7]Q E E E E e E
 
 |---------------0---|-----5-5---5--------|------0---0-----|
 |-------------3---2-|-----2-2------------|------3---3-----|
 |-------------------|-2------------------|------1---1-----|
 |-----2---0h1-------|--------------------|----------------|
 |-0-0-0---------2---|-0-0-----0----------|----------------|
 |-------0---0-------|-------------2b2.5--|-0--0---0---0-2-|

[D7/F#]E E q q E [A]E +E Q. Q E [Dm/FE]E E E E [A]E E Q. +W
 
 |---2---------5-|-(5)-5----5----5-|-0--------------|--------*|
 |-1-------------|-----------------|----------------|--------*|
 |-2-------------|-----------------|-----1-2---2----|-(2)----*|
 |-0-------------|-----5----5----3-|-2---1-2---2----|-(2)----*|
 |---------------|-----------------|---0---0---0----|-(0)----*|
 |-2---2--2----5-|-(5)-------------|----------------|--------*| 


Important: The song above is NOT stored on the Chordie server. The original song is hosted at www.azchords.com. Chordie works as a search engine and provides on-the-fly formatting. Chordie does not index songs against artists'/composers' will. To remove this song please click here.

Text color:
Chord color:
Chord grids: 
Font size:    
Page size: 

A A7 D7/F# E7
Rate #1 of 1 versions

Login - add to songbook

SHARE PAGE  



You need to log in to post comments