Guitar Tabs, Chords and Lyrics
Server problems seems to be fixed. Chordie has been experiencing problems with songs disappearing. These issues now seems to be fixed, but still verifying the fix. If you find anything strange, please email admin@chordie.com.


The Old Man and Me  Eric Clapton

Gtr I (E A D G B E) - 'Eric Clapton - Electric Guitar'
Gtr II (E A D G B E) - 'Greg Leisz - Pedal Steel Guitar'
Gtr III (E A D G B E) - 'Eric Clapton - Acoustic Guitar'
Intro
Q=94
[Bb] [Fm7] [Bb] [Fm7] [Bb] [Fm7] [Bb] [Fm7] 
[4/4] Gtr I (Clean El. Gtr. w/ amp tremolo)
E E E E E Q E E E E E E Q E E E E E E Q. E E E E E Q E
 
 |----------------|----------------|----------------|----------------||
 |----------------|----------------|----------------|----------------||
 |-----3-----1--1-|-----3-----1--1-|-----3-----1----|-----3-----1--1-||
 |---3---3-1----1-|---3-------1--1-|---3-------1----|---3---3-1-1--1-||
 |-1--------------|-1-----1-3------|-1-----1-3------|-1--------------||
 |----------------|----------------|----------------|----------------||

1st & 2nd Verses
[Bb]E E E E [Fm7]E Q E [Bb]E E E E [Fm7]E Q E [Bb]E E E E [Fm7]E Q. [Bb]E E E E [Bb]E Q E
 
 ||-----------------|----------------|----------------|----------------|
 ||o----------------|----------------|----------------|----------------|
 ||------3-----1--1-|-----3-----1--1-|-----3-----1----|-----3-----1--1-|
 ||----3---3-1----1-|---3-------1--1-|---3-------1----|---3---3-1-1--1-|
 ||o-1--------------|-1-----1-3------|-1-----1-3------|-1--------------|
 ||-----------------|----------------|----------------|----------------|

[Bb]E E E E [Fm7]E Q E [Bb]E E E E [Bb]E Q E [Bb]E E E E [Fm7]E Q. [Bb]E E E E [Fm7]E Q E
 
 |----------------|----------------|----------------|-----------------|
 |----------------|----------------|----------------|-----------------|
 |-----3-----1--1-|-----3-----1--1-|-----3-----1----|-----3-----1--1--|
 |---3---3-1----1-|---3-------1--1-|---3-------1----|---3---3-1-1--1--|
 |-1--------------|-1-----1-3------|-1-----1-3------|-1---------------|
 |----------------|----------------|----------------|-----------------|

1. 2.
[Bb]E E E E [Fm7]E Q E [Bb]E E E E [Fm7]E Q E [Bb]E E E E [Fm7]E Q E [Bb]E E E E [Fm7]E Q E
 
 |----------------|-----------------||----------------|-----------------||
 |----------------|----------------o||----------------|-----------------||
 |-----3-----1--1-|-----3-----1--1--||-----3-----1--1-|-----3-----1--1--||
 |---3---3-1----1-|---3-------1--1--||---3---3-1----1-|---3-------1--1--||
 |-1--------------|-1-----1-3------o||-1--------------|-1-----1-3-------||
 |----------------|-----------------||----------------|-----------------||

Guitar Solo
[Bb]E E E E [Fm7] E Q E [Bb] E E E E [Fm7]E Q E
 
 |-------------------------|--------------------|
 |-------------------------|--------------------|
 |--------3-----------1--1-|--------3-----1---1-|
 |---3---------3---1-----1-|------3-------1---1-|
 |-1-----------------------|---1------1-3-------|
 |-------------------------|--------------------|

|
| Gtr II (Pedal Steel arr. for Gtr.)
| Q a E a E +H +H Q E E
 
 |-------------------------|--------------------|
 |-----9s10-9s10-(10)------|-(10)---------------|
 |-------------------------|------------8---8---|
 |-------------------------|--------------------|
 |-------------------------|--------------------|
 |-------------------------|--------------------|

[Bb]E E E E [Fm7]E Q. [Bb]E E E E [Fm7]E Q E
 
 |----------------|-----------------|
 |----------------|-----------------|
 |-----3-----1----|-----3-----1--1--|
 |---3-------1----|---3---3-1-1--1--|
 |-1-----1-3------|-1---------------|
 |----------------|-----------------|

|
| E E Q H W
 
 |----------------|-----------------|
 |----------------|-----------------|
 |-8-7------------|-----------------|
 |-----8----------|-----------------|
 |----------------|-----------------|
 |----------------|-----------------|

[Bb]E E E E [Fm7]E Q E [Bb]E E E E [Fm7]E Q E [Bb]E E E E [Fm7]E Q.
 
 |----------------|----------------|----------------|
 |----------------|----------------|----------------|
 |-----3-----1--1-|-----3-----1--1-|-----3-----1----|
 |---3---3-1----1-|---3-------1--1-|---3-------1----|
 |-1--------------|-1-----1-3------|-1-----1-3------|
 |----------------|----------------|----------------|

E E E E E Q E E E E E E Q E E E E E E Q E
 
 |----------------|------------------|------------------------||
 |----------------|------------------|------------------------||
 |-----3-----1--1-|-------3-----1--1-|--------3---------1--1--||
 |---3---3-1-1--1-|-----3---3-1----1-|------3-----------1--1--||
 |-1--------------|---1--------------|----1-----1-----3-------||
 |----------------|------------------|------------------------||

|
| Gtr III (Ac. Gtr.)
| W a H H a H a H
 
 |----------------|------------------|------------------------||
 |----------------|------------------|------------------------||
 |----------------|-5s7-------8------|-8s10-------10s12-------||
 |----------------|------------------|------------------------||
 |----------------|------------------|------------------------||
 |----------------|------------------|------------------------||

3rd Verse
[Bb]E E E E [Fm7]E Q E [Bb]E E E E [Fm7]E Q E [Bb]E E E E [Fm7]E Q. [Bb]E E E E [Fm7]E Q E
 
 |----------------|----------------|----------------|-----------------|
 |----------------|----------------|----------------|-----------------|
 |-----3-----1--1-|-----3-----1--1-|-----3-----1----|-----3-----1--1--|
 |---3---3-1----1-|---3-------1--1-|---3-------1----|---3---3-1-1--1--|
 |-1--------------|-1-----1-3------|-1-----1-3------|-1---------------|
 |----------------|----------------|----------------|-----------------|

[Bb]E E E E [Fm7]E Q E [Bb]E E E E [Fm7]E Q E [Bb]E E E E [Fm7]E Q.
 
 |----------------|----------------|----------------|
 |----------------|----------------|----------------|
 |-----3-----1--1-|-----3-----1--1-|-----3-----1----|
 |---3---3-1----1-|---3-------1--1-|---3-------1----|
 |-1--------------|-1-----1-3------|-1-----1-3------|
 |----------------|----------------|----------------|

[Bb]E E E E [Fm7]E Q E [Bb]E E E E [Fm7]E Q E [Bb]E E E E [Fm7]E Q E
 
 |----------------|----------------|----------------||
 |----------------|----------------|----------------||
 |-----3-----1--1-|-----3-----1--1-|-----3-----1--1-||
 |---3---3-1-1--1-|---3---3-1----1-|---3-------1--1-||
 |-1--------------|-1--------------|-1-----1-3------||
 |----------------|----------------|----------------||

Outro
[Bb]E E E E [Fm7]E Q E [Bb]E E E E [Fm7]E Q E
 
 |-----------------------|-----------------------|
 |-----------------------|-----------------------|
 |-----3-------1-------1-|-----3-------1-------1-|
 |---3---3---1---------1-|---3---------1-------1-|
 |-1---------------------|-1-----1---3-----------|
 |-----------------------|-----------------------|

|
| Gtr III
| E E E S S E S S S S E E E E S S E S S S S E
 
 |-----------------------|-----------------------|
 |---3-------1-------1---|---3-------1-------1---|
 |-------3-------1-------|-------3-------1-------|
 |---3-----3---1-------1-|---3-----3---1-------1-|
 |-1---1-----3-----3-----|-1---1-----3-----3-----|
 |-----------------------|-----------------------|

[Bb]E E E E [Fm7]E Q. [Bb]E E E E [Fm7]E Q E
 
 |------------------------|--------------------------|
 |------------------------|--------------------------|
 |-----3-------1----------|-----3-------1-------1----|
 |---3---------1----------|---3---3---1-1-------1----|
 |-1-----1---3------------|-1------------------------|
 |------------------------|--------------------------|

|
| E E E S S E S S S S E E E E S S E S S S S E
 
 |------------------------|--------------------------|
 |---3-------1--------1---|---3-------1-------1------|
 |-------3--------1-------|-------3-------1----------|
 |---3-----3---1--------1-|---3-----3---1-------1----|
 |-1---1-----3------3-----|-1---1-----3-----3--------|
 |------------------------|--------------------------|

E E E E E Q E E E E E E Q E
 
 |-----------------------|-----------------------|
 |-----------------------|-----------------------|
 |-----3-------1-------1-|-----3-------1-------1-|
 |---3---3---1---------1-|---3---------1-------1-|
 |-1---------------------|-1-----1---3-----------|
 |-----------------------|-----------------------|

|
| E E E S S E S S S S E E E E S S E S S S S E
 
 |-----------------------|-----------------------|
 |---3-------1-------1---|---3-------1-------1---|
 |-------3-------1-------|-------3-------1-------|
 |---3-----3---1-------1-|---3-----3---1-------1-|
 |-1---1-----3-----3-----|-1---1-----3-----3-----|
 |-----------------------|-----------------------|

|
| Gtr II
| W W
 
 |-----------------------|-----------------------|
 |-----------------------|-----------------------|
 |-----------------------|-----------------------|
 |-----------------------|-----------------------|
 |-----------------------|-----------------------|
 |-----------------------|-----------------------|

E E E E E Q. E E E E E Q E
 
 |------------------------|--------------------------|
 |------------------------|--------------------------|
 |-----3-------1----------|-----3-------1-------1----|
 |---3---------1----------|---3---3---1-1-------1----|
 |-1-----1---3------------|-1------------------------|
 |------------------------|--------------------------|

|
| E E E S S E S S S S E E E E S S E S S S S E
 
 |------------------------|--------------------------|
 |---3-------1--------1---|---3-------1-------1------|
 |-------3--------1-------|-------3-------1----------|
 |---3-----3---1--------1-|---3-----3---1-------1----|
 |-1---1-----3------3-----|-1---1-----3-----3--------|
 |------------------------|--------------------------|

|
| W Q E E E E E E
 
 |------------------------|--------------------------|
 |------------------------|-------9---8-6-------6----|
 |------------------------|-----------------8--------|
 |------------------------|--------------------------|
 |------------------------|--------------------------|
 |------------------------|--------------------------|

[Bb] E E E E [Fm7]E Q E [Bb]E E E E [Fm7]E Q E
 
 |---------------------------|-----------------------|
 |---------------------------|-----------------------|
 |---------3-------1-------1-|-----3-------1-------1-|
 |-------3---3---1---------1-|---3---------1-------1-|
 |----1----------------------|-1-----1---3-----------|
 |---------------------------|-----------------------|

|
| E E E S S E S S S S E E E E S S E S S S S E
 
 |---------------------------|-----------------------|
 |-------3-------1-------1---|---3-------1-------1---|
 |-----------3-------1-------|-------3-------1-------|
 |-------3-----3---1-------1-|---3-----3---1-------1-|
 |----1----1-----3-----3-----|-1---1-----3-----3-----|
 |---------------------------|-----------------------|

|
| a H. Q W
 
 |---------------------------|-----------------------|
 |---------------------------|-----------------------|
 |-9s10----------------------|-----------------------|
 |---------------------------|-----------------------|
 |---------------------------|-----------------------|
 |---------------------------|-----------------------|

[Bb]E E E E [Fm7]E Q. [Bb]E E E E [Fm7]E Q E
 
 |------------------------|-------------------------|
 |------------------------|-------------------------|
 |-----3-------1----------|-----3-------1-------1---|
 |---3---------1----------|---3---3---1-1-------1---|
 |-1-----1---3------------|-1-----------------------|
 |------------------------|-------------------------|

|
| E E E S S E S S S S E E E E S S E S S S S E
 
 |------------------------|-------------------------|
 |---3-------1--------1---|---3-------1-------1-----|
 |-------3--------1-------|-------3-------1---------|
 |---3-----3---1--------1-|---3-----3---1-------1---|
 |-1---1-----3------3-----|-1---1-----3-----3-------|
 |------------------------|-------------------------|

|
| W Q E E Q E E
 
 |------------------------|-------------------------|
 |------------------------|-------------------------|
 |------------------------|-----8-7---8-------------|
 |------------------------|-----------------6---8---|
 |------------------------|-------------------------|
 |------------------------|-------------------------|

E E E E E Q E E E E E E Q E
 
 |-------------------------|-----------------------|
 |-------------------------|-----------------------|
 |-------3-------1-------1-|-----3-------1-------1-|
 |-----3---3---1---------1-|---3---------1-------1-|
 |--1----------------------|-1-----1---3-----------|
 |-------------------------|-----------------------|

|
| E E E S S E S S S S E E E E S S E S S S S E
 
 |-------------------------|-----------------------|
 |-----3-------1-------1---|---3-------1-------1---|
 |---------3-------1-------|-------3-------1-------|
 |-----3-----3---1-------1-|---3-----3---1-------1-|
 |--1----1-----3-----3-----|-1---1-----3-----3-----|
 |-------------------------|-----------------------|

|
| +W W
 
 |-------------------------|-----------------------|
 |-------------------------|-----------------------|
 |-------------------------|-----------------------|
 |-(8)---------------------|-----------------------|
 |-------------------------|-----------------------|
 |-------------------------|-----------------------|

E E E E E Q. E E E E E Q E
 
 |--------------------------|---------------------------|
 |--------------------------|---------------------------|
 |-------3-------1----------|-------3-------1-------1---|
 |---3-----------1----------|-----3---3---1-1-------1---|
 |-1-------1---3------------|--1------------------------|
 |--------------------------|---------------------------|

|
| E E E S S E S S S S E E E E S S E S S S S E
 
 |--------------------------|---------------------------|
 |---3---------1--------1---|-----3-------1-------1-----|
 |---------3--------1-------|---------3-------1---------|
 |---3-------3---1--------1-|-----3-----3---1-------1---|
 |-1-----1-----3------3-----|--1----1-----3-----3-------|
 |--------------------------|---------------------------|

|
| Q a E E E E E E +H. Q
 
 |--------------------------|---------------------------|
 |-----6s4-3---4s5----6---6-|-(6)-----------------------|
 |--------------------------|---------------------------|
 |--------------------------|---------------------------|
 |--------------------------|---------------------------|
 |--------------------------|---------------------------|

[Bb]E E E E [Fm7]E Q E [Bb]E E E E [Fm7]E Q E
 
 |-----------------------|-----------------------|
 |-----------------------|-----------------------|
 |-----3-------1-------1-|-----3-------1-------1-|
 |---3---3---1---------1-|---3---------1-------1-|
 |-1---------------------|-1-----1---3-----------|
 |-----------------------|-----------------------|

|
| E E E S S E S S S S E E E E S S E S S S S E
 
 |-----------------------|-----------------------|
 |---3-------1-------1---|---3-------1-------1---|
 |-------3-------1-------|-------3-------1-------|
 |---3-----3---1-------1-|---3-----3---1-------1-|
 |-1---1-----3-----3-----|-1---1-----3-----3-----|
 |-----------------------|-----------------------|

[Bb]E E E E [Fm7]E Q. [Bb]E E E E [Fm7]E Q E
 
 |------------------------|--------------------------|
 |------------------------|--------------------------|
 |-----3-------1----------|-----3-------1-------1----|
 |---3---------1----------|---3---3---1-1-------1----|
 |-1-----1---3------------|-1------------------------|
 |------------------------|--------------------------|

|
| E E E S S E S S S S E E E E S S E S S S S E
 
 |------------------------|--------------------------|
 |---3-------1--------1---|---3-------1-------1------|
 |-------3--------1-------|-------3-------1----------|
 |---3-----3---1--------1-|---3-----3---1-------1----|
 |-1---1-----3------3-----|-1---1-----3-----3--------|
 |------------------------|--------------------------|

H.=H
[Bb]E E E E [Fm7]H [Bb] W W
 
 |------------------|-----------|--------*|
 |------------------|-----------|--------*|
 |-----3------------|-----------|--------*|
 |---3---3----------|-----------|--------*|
 |-1---------3------|-----------|--------*|
 |------------------|-----------|--------*|

|
| E E E S S E Q E W +W
 
 |------------------|-----------|--------*|
 |---3---------1--1-|-^3--------|-(3)----*|
 |-------3-----1--1-|-^3--------|-(3)----*|
 |---3-----3--------|-^3--------|-(3)----*|
 |-1---1-----3------|-^1--------|-(1)----*|
 |------------------|-----------|--------*| 


Important: The song above is NOT stored on the Chordie server. The original song is hosted at www.azchords.com. Chordie works as a search engine and provides on-the-fly formatting. Chordie does not index songs against artists'/composers' will. To remove this song please click here.

Text color:
Chord color:
Chord grids: 
Font size:    
Page size: 

Bb Fm7
Rate #1 of 1 versions

Login - add to songbook

SHARE PAGE  



You need to log in to post comments