Guitar Tabs, Chords and Lyrics
Server problems seems to be fixed. Chordie has been experiencing problems with songs disappearing. These issues now seems to be fixed, but still verifying the fix. If you find anything strange, please email admin@chordie.com.


Whisper  Ernie Halter

Ernie Halter - Whisper
Great song, but I noticed all the tabs were wrong. I'm 100% positive on this one...
All chords as written except for these:
[F#]0 [A5]0 [Ebm6] 0
0 0 4
[2] [2] [3]  
[2]0 [2]0 [4]3
2 0 0
Capo 2 (all chords relative to capo)
Intro and beginning of verse
 
 e|--0-0---0-0---0-0---0-0--|
 b|--0-0---0-0---0-0---0-0--|
 g|--1-1---2-2---2-2---1-1--|
 d|--2-2---4-4---4-4---2-2--|
 a|--2-2---4-4---3-3---2-2--|
 E|--0-0---0-0---0-0---0-0--|

Repeat that until "How do I walk back into her life?"
How do I ask her to come back to me
After I told her
goodbye
How do I love her so desperately
And for so long I
pushed her for side
How d[F#]o I walk back into her[B] life?
E (*see note 2) A5
When I'm the one who walked out on her.
How do I [F#]ask her, to s[B]ee me ag[Ebm6]ain?
When I to[C#m]ld her that I w[Abm]asn't s[F#m]ure,
We could be fri[F#]ends.[B]
CHORUS
 
 e|--------------------|
 b|--------------------|
 g|--------------------|
 d|--------------------|
 a|----------2------4--|
 E|--/s4---------------| C#m Abm F#m

God can you whisper in her ear?
Anyw[C#m]here on t[Abm]he way to her c[F#m]ar?
Before the [C#m]wind b[Abm]lows her too [F#m]far
Away from my he[C#m]art?[Abm] [F#m]
 
 -------------------------------------------------------------------------

Repeat that for the 2nd half of the chorus, and the verses stay the same.
LYRICS
God can you whisper, in her ear
Anywhere on
the way to her car
Before the wind blows her too
far
Away from my heart
Can you whisper in her
ear
Anytime while she laying on her bed
Can you tell her
everything that I've said
Everything that I've said
How do i try and explain everything
Nothing I say seems to fit
How do I get her to
pick up the phone
Baby how did we ever get like this
Tell me what kind of man, lets love slips away
And leave such a good
thing behind
Hold in my hand pressed
Praying to find,
a way to fill in this hole I have inside
Chorus
 
 -----------------------------------------------------------------------------

Two quick notes:
1. During the intro, after the last E chord of a loop, he does a walk line on the
low E and a strings.
 
 a|-------0h2p2-----|
 E|--0h2------------|

2. As noted, before the A5 chord, he does another walk that goes with the music.
 
 e|---------------------0-|
 b|---------------------0-|
 g|---------------------2-|
 d|---------------------2-|
 a|---------------------0-|
 E|--0--------2----3----0-|

walked out on her
Please Rate.

Important: The song above is NOT stored on the Chordie server. The original song is hosted at www.azchords.com. Chordie works as a search engine and provides on-the-fly formatting. Chordie does not index songs against artists'/composers' will. To remove this song please click here.

Text color:
Chord color:
Chord grids: 
Font size:    
Page size: 

A5 Abm B C#m Ebm6 F# F#m
Rate #1 of 3 versions

Jango Player

Login - add to songbook

SHARE PAGE  



You need to log in to post comments