Guitar Tabs, Chords and Lyrics
Major upgrade!! After one year development the new version of Chordie is now online! Please give feedback.


Hello  Evanescence

(Intro/Verse)
[Bb]  
 
 e|-------------------------|-----------------------|
 B|------3---3-2---2-----2--|------3---3-2-2-----2--|
 G|------------------2-2----|----------------2-2----|
 D|----4---4-----4----------|----4---4--------------|
 A|--2----------------------|--2--------------------|
 D|-------------------------|-----------------------|

[A]  
 
 e|-----------------------------|-------------------------------|
 B|----------2-------0------(0)-|----------2-------3-2-2p0---0--|
 G|------2-------2----(2)--2----|------2-------2-----------2----|
 D|----2---2---2---2-----2------|----4---4---4---4--------------| (x2)
 A|--0--------------------------|-------------------------------|
 D|-----------------------------|--4----------------------------|

(Chorus)
 
 e|-----------------------|-----------------------|------|
 B|-----------------------|-----------------------|------|
 G|-----------------------|-----------------------|------|
 D|-----------------------|-----------------------|------|
 A|--5---0---2---4---5----|--4---0---1---2---4----|--2-4-|
 D|--0-4---4--(4)-(4)-(0)-|----4---4--(4)-(4)-(4)-|------|
 e|-----------------------------------|-----------------------------------|
 B|-----------------------------------|-----------------------------------|
 G|-----------------------------------|-----------------------------------|
 D|--------------------------4--------|--------------------------4--------|
 A|--5---2---2-4-5---4---2------------|--5---0---2-4-5---4---0------------|
 D|----4---4-------4---4---4---4-0-4--|----4---4-------4---4---4--(4)0-4--|
 e|--------------------------|-------------------------|-------------(2)-|
 B|-(3)----------------------|-------------------------|-----------------|
 G|--------------------------|-------------------------|-----------------|
 D|--------------------------|-------------------------|-----------------|
 A|--5----0---2---4---5------|------0---2---4---5------|--------2---1----|
 D|-----4---4--(4)-(0)--4-2--|--0-4---4--(4)-(0)--0-2--|--4-4-4---4------|

(Outro)
[Bb]  
 
 e|-----------------------------| e|---|
 B|------3---3-2---2--------2---| B|-0-|
 G|------------------2---2----2-| G|---|
 D|----4---4-----4-----4---4----| (x 4) D|---|
 A|--2--------------------------| A|---|
 D|-----------------------------| D|---|


Important: The song above is NOT stored on the Chordie server. The original song is hosted at www.azchords.com. Chordie works as a search engine and provides on-the-fly formatting. Chordie does not index songs against artists'/composers' will. To remove this song please click here.

Text color:
Chord color:
Chord grids: 
Font size:    
Page size: 

A Bb
Rate #2 of 12 versions

Jango Player

Login - add to songbook

SHARE PAGE  



You need to log in to post comments