Guitar Tabs, Chords and Lyrics
Major upgrade!! After one year development the new version of Chordie is now online! Please give feedback.


Whisper  Evanescence

 
 --------------------------------------------------

Tuning
The guitar is tuned VERY low in this song
Take it to Drop-D, then down a full step and a half
 
 Db --------------------------
 Ab --------------------------
 Eb --------------------------
 B --------------------------
 Gb --------------------------
 B --------------------------
 ---------------------------------------------------

Intro:
~ bend , (h) hammer on, (p) pull off
 
 Db ----------------------|---------------------------
 Ab ----------------------|---------------------------
 Eb ----------------------|-----------1---------------
 B ---3--4--3--4--3h4p1~-|--3--4--3----4-3-4-3-1-3---
 Gb ----------------------|---------------------------
 B --3--3--3--3----------|-3--3--3-------------------
 Db ---------------------|----------------------------
 Ab ---------------------|----------------------------
 Eb ---------------------|----------1-----------------
 B ---3--4--3--4--------|--3--4--3---4-3-4-3-1-------
 Gb --3--3--3--3------6~-|-3--3--3--------------4-----
 B --3--3--3--3--3h4----|-3--3--3--------------------
 ----------------------------

Verse:
( ) = Rest
 
 Db ---------------------------
 Ab ---------------------------
 Eb ---------------------------
 B --3------------------------
 Gb --3-----[ ]--------------
 B --3------------------------

Catch me, as I fall
Say you're here and it's all over now.
Speaking to my utmost fears,
No-ones here as I fall into myself
 
 Db ----------------------|---------------------------
 Ab ----------------------|---------------------------
 Eb ----------------------|-----------1---------------
 B ---3--4--3--4--3h4p1~-|--3--4--3----4-3-4-3-1-3---
 Gb ----------------------|---------------------------
 B --3--3--3--3----------|-3--3--3-------------------

This truth... Drives me...
 
 Db ---------------------|----------------------------
 Ab ---------------------|----------------------------
 Eb ---------------------|----------1-----------------
 B ---3--4--3--4--------|--3--4--3---4-3-4-3-1-------
 Gb --3--3--3--3------6~-|-3--3--3--------------4-----
 B --3--3--3--3--3h4----|-3--3--3--------------------

Into... Madness...
I know I can stop the pain if I will it all away...
 
 -------------------

Chorus:
[D5] [A#5] [C5] [A#5] [G5] [C5]  
 
 Db --------------------|-------------------
 Ab --------------------|-------------------
 Eb ---5----------------|-------------------
 B ---3-----6----1-----|--6----3----1------
 Gb ---3-----4----1-----|--4----1----1------
 B ---3----------1-----|------------1------

[D5]Don't [A#5]turn [C5]away
[A#5]Don't [G5]try to [C5]hide
[D5]Don't [A#5]close your [C5]eyes
[A#5]Don't t[G5]urn out the [C5]light
[----]  
Bridge
 
 ---D5---

[-----]  
Solo
 
 Db ------------------------------------------
 Ab ------------------------------------------
 Eb ------------------------------------------
 B ------------------------------------------
 Gb --3~-3p1h3--4~-4p3h4------------3~-3p1h3--
 B ----------------------8~-8p6h8------------
 Db ---------------------------------------
 Ab ---------------------------------------
 Eb ----------------------------------------
 B ----------------------------------------
 Gb ----------------------------------------
 B --6~-6p5h6--8~-6p5h6-6p5-6p5-6p5-~--55--
 Db ------------------------------------------------------------
 Ab ------------------------------------------------------------
 Eb ------------------------------------------------------------
 B ------------------------------------------------------------
 Gb ----------------------3--4\3\1--6~-66-6--4-3h4p1--333-4-3---
 B --3--6\5/6--8--6\5/6----------------------------------------


Important: The song above is NOT stored on the Chordie server. The original song is hosted at www.azchords.com. Chordie works as a search engine and provides on-the-fly formatting. Chordie does not index songs against artists'/composers' will. To remove this song please click here.

Text color:
Chord color:
Chord grids: 
Font size:    
Page size: 

A#5 C5 D5 G5
Rate #1 of 3 versions

Jango Player

Login - add to songbook

SHARE PAGE  




You need to log in to post comments