Guitar Tabs, Chords and Lyrics
Major upgrade!! After one year development the new version of Chordie is now online! Please give feedback.


I Will Buy You a New Life  Everclear

I Will Buy You A New Life
So Much For The Afterglow
Words By Art Alexakis
Music By Everclear
 
 e----------------------------------------------------
 b----------------------------------------------------
 g----------------------------------------------------
 d----------------------------------------------------
 a-5-5-5-5555-------------5-5-5-5555--------5-5-5-5555
 e-3-3-3-3333-------------3-3-3-3333--------3-3-3-3333

hmmmmmmmm ahh
 
 e-------------------------
 b-------------------------
 g-------------------------
 d-------------------------
 a--------------5-5-5-5555-
 e--------------3-3-3-3333-

yeah
[G]Here is the [B7]money that I owe you[G5]
Yes You [B7]can pay the bills[G5]
I will give [B7]you some more when i can pay it again[Em] [C]
[G]I hate those [B7]people who'd love to tell you [G5]
money is the r[B7]oot of all the kill [G5]
they have never been poor [B7]they have never known the joy
R E S T G
of a welfare christmas
Yeah [G] I know we will never look back [G] Yeah[G]
 
 e-----------------------
 b-----------------------
 g-----------------------
 a-----------------------
 d-----------0-----------
 a-----0/2---------------
 e-3-3-------------------

[G]You say you wake up crying[B7]
Yes and you dont know why[G5]
You get up and you go lay down [B7]inside my babys room [Em] [C]
ooh [G]yeah guess I'm doing ok
[B7]I moved in with the strangest guy[G5]
Can you beleive he actually [B7]thinks that i am really alive
 
 e--------
 b--------
 g--------
 d--------

a-13\----
e-15\----
CHORUS
[G]I will [B7]buy you a gard[Em]en
where your [C]flowers can bloom[G]
I will [B7]buy you a new [Em]car
perfect [C]shiny and new[G]
I will [B7]buy you that big [Em]house way up [C]in the west hills[G]
I will [B7]buy you a new [C7]life
Yes I will[G]
 
 e---------
 b---------
 g---------
 d---------
 a-9\------
 e-7\------

[G]Yes I know a[B7]ll about that other guy[G5]
The handsome [B7]man with athletic thighs[G5]
i know all about the time be[B7]fore
yeah with that obsessive [Em]little [C]rich boy[G]
They might [B7]make you think you're happy [G5]
yeah maybe for a mineute or two[G]
they can't make you life
no they can't make you feel the way that i do
GO TO CHORUS
Then Play "I know we will never look back" then play chorus 3X

Important: The song above is NOT stored on the Chordie server. The original song is hosted at www.azchords.com. Chordie works as a search engine and provides on-the-fly formatting. Chordie does not index songs against artists'/composers' will. To remove this song please click here.

Text color:
Chord color:
Chord grids: 
Font size:    
Page size: 

B7 C C7 Em G G5
Rate #2 of 14 versions

Login - add to songbook

SHARE PAGE  




You need to log in to post comments