Guitar Tabs, Chords and Lyrics
Update 25:10. 13:00. Site is back up running again. Songbooks are recovered. Woring on getting search back up..


Normal Like You  Everclear

This tab is the correct way to play and may seem difficult
s= slide p= pull off
Intro- light distortion, guitar 1
 
 E------------------------------------------------------------------------------
 B----------8--8-----------------7---7----------------7---7---------------7---7-
 G----------9--9-----------------8---8----------------8---8---------------8---8-
 D--10-10--10-10--10-10-9-10-10--10-10--10-10-9-10-10-10-10-10-10-9-10-10-10-10-
 A--10-10---------10-10-9-10-10---------10-10-9-10-10-------10-10-9-10-10-------
 E--8---8----------8--8-7--8--8---------8--8--7--8--8--------8--8-7-8---8-------

[C5] 
 
 E------------------------------------------------------------------------------
 B-------------------9---9-----------------4-4----------------4-4---------------
 G-------------------10-10-----------------5-5----------------5-5---------------
 D--10-10--9-11-11---11-11--11-11-11-6-6---6-6---6-6-5-6-6----6-6-10-10-11-11---
 A--10-10--9-11-11----------11-11-11-6-6---------6-6-5-6-6--------10-10-11-11---
 E--8---8--7--9---9---------9---9-9--4-4---------4-4-3-4-4--------8---8--9‚??-9---

This is guitar part two of the intro that starts at the C5 chord I marked above.
Tremolo Pick
 
 E---7-7-7-7-7-7-7-7-7-7-7-s---19---
 B---xxxxxxxxxxxxxxxxxxxxx------x--- Continue the trem. pick right until
 G---4-4-4-4-4-4-4-4-4-4-4-s---16--- the words then slide to open strings
 D----------------------------------------
 A----------------------------------------
 E----------------------------------------

Verse 1-light distortion and palm muted
 
 E-------------------------------------------------------------------------------
 B------------8----8-----8--------------------9----9-------9------------4--4-----
 G------------9----9-----9-------------------10---10-------10-----------5--5-----
 D---10---10---------10-------10----11---11-------------11-------11s--6-------6--
 A-------------------------------------------------------------------------------
 E-------------------------------------------------------------------------------
 E-----------------------------------------------------------
 B---4----------------------4-----4-------------4----------- Repeat once more
 G---5----------5----5------5-----5-----5-------5-----5------
 D--------6-----6----6------------------6-------------6------
 A-----------------------------------------------------------
 E-----------------------------------------------------------

Right before the chorus, before it says ‚??Take your medication everyday‚?? play a C5 power chord (8th fret) for a measure, then a C#5 (9th fret) for a measure, and then a G#5 (4th fret) for 2 measures.
Chorus- slight distortion
Play D, C9, G (bar chord), and then a D, C9, G5, A5, B5, and wrap it up on a C5.
Verse 2 is the same as above
The guitar solo has three parts- one is easy
Part one is a simple strum of B5, C5, and G5 chords. Part two and three are octaves and are difficult to put together correctly. This solo lasts through the bridge until the third chorus so that‚??s why it looks long.
Part 1
[A]  
 
 E--11-11-11-11-11-11-11-11--12--12-12-12-12--12-12-12---7--7--7-7-7--7-7--7---
 B--x--x--x--x---x--x--x-x---x---x---x--x--x---x--x--x---x--x-x-x--x-x-x--x----
 G--8--8--8--8--8--8--8--8---9---9---9--9--9--9---9--9---4--4--4-4-4--4-4--4---
 D-----------------------------------------------------------------------------
 A-----------------------------------------------------------------------------
 E-----------------------------------------------------------------------------
 E---7-7-7-7-7-7-7-7---11-11-11-11-11--11-11-11--11------------------------------
 B---x-x-x-x-x-x-x-x---x---x--x---x---x---x---x---x--12-12-12--12-12-12-12-12--12
 G---4-4-4-4-4-4-4-4---8---8--8---8---8---8---8---8--x---x---x---x---x--x---x---x
 D---------------------------------------------------9---9---9---9---9--9---9---9
 A------------------------------------------------------------------------------
 E-------------------------------------------------------------------------------

The next five measures are a strum of this octave
E---19-19 The six measure is a huge
 
 B---x---x slide of that chord back 

G---16-16 to the chorus.
 
 D--------
 A--------
 E--------

Part 2- Starts in at the point where I marked part one with an A.
 
 E-------------------------------------------------------------------------------
 B------------------------------------------------------------12s10----10s--8---8
 G---5-5--5-5-5-5-5-5-5-5--4s2--2p0-0--2s4---4s2---2p0--2s4---x-sx------x-s-x---x
 D------------------------------------------------------------9-s7------7-s-5---5
 A-------------------------------------------------------------------------------
 E-------------------------------------------------------------------------------
 E-------------------------------------------------
 B---10s12----12s-10----10-s-8----8-s-10--10s-12---This lasts the same amount of
 G---x-s-x-----x-s-x------x-s-x---x-s-x----x-s-x---measures as above before the
 D---7-s-9-----9-s-7-----7-s-5----5-s-7----7-s-9-----repeating part.
 A----------------------------------------------------
 E-----------------------------------------------------

The next six measures are all this which match the six repeating like above.
 
 E---19-s-17----17-s-15-----15-s-17-----17-s-19-------
 B---x--s-x------x--s-x------x--s-x------x--s-x-------
 G---16-s-14----14-s-12-----12-s-14-----14-s-16-------
 D----------------------------------------------------
 A----------------------------------------------------
 E----------------------------------------------------

Third chorus is like above
This is the picking pattern when Art sings- I can be normal too
 
 E-------------8-----------------------8-----------------8---------------
 B----------8-----8-------8----------8----8-----------8-----8------------
 G-------9------------------------9-----------9-----9-----------9--------
 D---10-----------------------10-----------------------------------10s--
 A-------------------------------------------------------------------------
 E-------------------------------------------------------------------------

And this is the little thing Art does right at the end
 
 E----------------8-------------3-----
 B---------8--------8-----8-----3-----
 G------9----9---------9--------4-----
 D---10-------------------------5-----
 A------------------------------------
 E------------------------------------

Have Fun

Important: The song above is NOT stored on the Chordie server. The original song is hosted at www.azchords.com. Chordie works as a search engine and provides on-the-fly formatting. Chordie does not index songs against artists'/composers' will. To remove this song please click here.

Text color:
Chord color:
Chord grids: 
Font size:    
Page size: 

A C5
Rate #1 of 1 versions

Login - add to songbook

SHARE PAGE  



You need to log in to post comments