Guitar Tabs, Chords and Lyrics
Major upgrade!! After one year development the new version of Chordie is now online! Please give feedback.


Only Place I Call Home  Every Avenue

 
 -------------------------------------------------------------------------------
 -------------------------------------------------------------------------------

This is my first tab so sorry if there are mistakes and what not. Rate and enjoy!
Tuning: Standard (E,A,D,G,B,e)
Intro: (Piano part, translated to guitar)
 
 e|------6--6--6-4-6--6--6-4-6--6--6-4-6--2--2--------------------------------|
 B|---------------------------------------------------------------------------|
 G|---------------------------------------------------------------------------|
 D|---------------------------------------------------------------------------|
 A|---------------------------------------------------------------------------|
 E|---------------------------------------------------------------------------|
 e|------6--6--6-4-6--6--6-4-------------2--2---------------------------------|
 B|--------------------------4--4--4--4---------------------------------------|
 G|---------------------------------------------------------------------------|(play this 2x)
 D|---------------------------------------------------------------------------|
 A|---------------------------------------------------------------------------|
 E|---------------------------------------------------------------------------|

Guitar Part:
full
 
 e|----2h4-4p2-4---2h4-4p2-4---2h4-4p2-4-4-4b-4-2-----------------------------|
 B|---------------------------------------------------------------------------|
 G|---------------------------------------------------------------------------|
 D|---------------------------------------------------------------------------|
 A|---------------------------------------------------------------------------|
 E|---------------------------------------------------------------------------|
 e|----2h4-4p2-4---2h4-4p2-4---2h4-4p2-4-4-4b---/9-9-11p9h11---6p4h6----------|
 B|---------------------------------------------------------------------------|
 G|---------------------------------------------------------------------------|
 D|---------------------------------------------------------------------------|
 A|---------------------------------------------------------------------------|
 E|---------------------------------------------------------------------------|

full full
 
 e|----14---13h14p13---11\9---16b----16p14--11----13p11-13--13b---------------|
 B|---------------------------------------------------------------------------|
 G|---------------------------------------------------------------------------|
 D|---------------------------------------------------------------------------|
 A|---------------------------------------------------------------------------|
 E|---------------------------------------------------------------------------|

The rest of the song is pretty much just chords (the strumming pattern is quite easy to figure out)
Verse:
L[B]ea---[F#]ving your [Ebm]tears on my s[Db]houlder
Y[B]our e[F#]yes [Db]beg me to stay.
W[B]e w[F#]ere f[Ebm]inally ch[Db]anging.
It's [B]our l[F#]uck, we're a l[Db]ittle too late.
I[B]'d take you with me if there was a way.
S[Db]orry, don't cut it so I say,
Chorus:
T[F#]ake all of your doubts, you can throw 'em out.
Y[Db]ou may be unsure, but I know
I[Ebm]'m always coming back. You can bet on that,
Y[B]ou're the only place I call home.
N[F#]ear or far, [Db]where you are is [Ebm]where I want to [B]be.
E[F#]very lonely night, Every drunken fight,
C[Db]ouldn't make it right, I know.
I[Ebm]f it hurts you bad, Put it on my tab,
I[B] can pay it back tenfold.
Y[F#]ou're the only [Db]place I've ever [Ebm]called [Db]my h[B]ome.
Y[B]ears p[F#]ass, [Ebm]we're growing [Db]older
And y[B]ou're [F#]not s[Db]ure you can wait.
So I [B]pro---[F#]mise, i[Ebm]t won't always[Db] be like this.
Y[B]ou s[F#]ay, "[Db]It's always the same."
W[B]e're falling apart if you think so
I[Db]'m holding on even if you let go.
(Chorus)
[F/Db] 
 
 ---------
 Abm Ebm ---------
 ......If I had my way ---------
 Db F# F/Db (--->) ----3----
 You'd fill these empty beds. ----4----
 Abm Ebm ----1----

......Someday I'll come back for you
And [Db]never leave again.
Interlude:
[(B] [-] [Db] [-] [Ebm] [-] [Db)]  
(Chorus)
THE END
*****************************************
| / slide up
| \ slide down
| h hammer-on
| p pull-off
| ~ vibrato
| + harmonic
| x Mute note
| b Bend (pitch of bend is above staff)
*****************************************

Important: The song above is NOT stored on the Chordie server. The original song is hosted at www.azchords.com. Chordie works as a search engine and provides on-the-fly formatting. Chordie does not index songs against artists'/composers' will. To remove this song please click here.

Text color:
Chord color:
Chord grids: 
Font size:    
Page size: 

B Db Ebm F#
Rate #1 of 6 versions

Login - add to songbook

SHARE PAGE  




You need to log in to post comments