Guitar Tabs, Chords and Lyrics
Major upgrade!! After one year development the new version of Chordie is now online! Please give feedback.


Where Were You?   Every Avenue

 
 ----------------------------------------------------------------------------

 


 WHERE WERE YOU - Every Avenue


 


 Tuning: Drop D


 


 [Intro] 


 

 
 e|-------------------------------------------------------------------------|
 B|-------------------------------------------------------------------------|
 D|---5-5-5--3-3-3-3-3--5-5-5--7-7-7-7-7------------------------------------|
 A|---3-3-3--3-3-3-3-3--5-5-5--7-7-7-7-7------------------------------------|
 D|----------3-3-3-3-3--5-5-5--7-7-7-7-7------------------------------------|

 


 


 [Verse 1] 


 


 "Home for the weekend, lookin' for a good time...""...End up calling mine."


 

 
 e|-------------------------------------------------------------------------|
 B|-------------------------------------------------------------------------|
 G|------------------------------------55-55--------------------------55-55-|
 D|------------------------------------33-55--------------------------33-55-|
 A|------------------------------------33-33--------------------------33-33-|
 D|------------------------------------33-----------------------------33----|
 e|-------------------------------------------------------------------------|
 B|-------------------------------------------------------------------------|
 D|---5-5-5--3-3-3-3-3--5-5-5--7-7-7-7-7------------------------------------|
 A|---3-3-3--3-3-3-3-3--5-5-5--7-7-7-7-7------------------------------------|
 D|----------3-3-3-3-3--5-5-5--7-7-7-7-7------------------------------------|

 


 


 "All I want to know..."


 

 
 e|-------------------------------------------------------------------------|
 B|-------------------------------------------------------------------------|
 G|---5-------------7-------------------------------------------------------|
 D|---5-[x8]--------5-[x8]--------------------------------------------------|
 A|---3-------------5-------------------------------------------------------|
 D|-----------------5-------------------------------------------------------|

 


 


 [Cborus] 


 

 
 e|-------------------------------------------------------------------------|
 B|-------------------------------------------------------------------------|
 D|---5-5-5--3-3-3-3-3--5-5-5--7-7-7-7-7--------3---------------------------|
 A|---3-3-3--3-3-3-3-3--5-5-5--7-7-7-7-7--------3---------------------------|
 D|----------3-3-3-3-3--5-5-5--7-7-7-7-7--------3---------------------------|

 


 


 [Verse 2] 


 


 "Back to where we left off baby..."


 

 
 e|-------------------------------------------------------------------------|
 B|-------------------------------------------------------------------------|
 G|---------------------------55-55-----------------------------------------|
 D|---------------------------33-55-----------------------------------------|
 A|---------------------------33-33-----------------------------------------|
 D|---------------------------33--------------------------------------------|
 e|-------------------------------------------------------------------------|
 B|-------------------------------------------------------------------------|
 D|---5-5-5--3-3-3-3-3--5-5-5--7-7-7-7-7--------5---------------------------|
 A|---3-3-3--3-3-3-3-3--5-5-5--7-7-7-7-7--------5---------------------------|
 D|----------3-3-3-3-3--5-5-5--7-7-7-7-7--------5---------------------------|

 


 


 [Cborus] 


 

 
 e|-------------------------------------------------------------------------|
 B|-------------------------------------------------------------------------|
 D|---5-5-5--3-3-3-3-3--5-5-5--7-7-7-7-7--------3---------------------------|
 A|---3-3-3--3-3-3-3-3--5-5-5--7-7-7-7-7--------3---------------------------|
 D|----------3-3-3-3-3--5-5-5--7-7-7-7-7--------3---------------------------|
 e|-------------------------------------------------------------------------|
 B|-------------------------------------------------------------------------|
 D|---5-5-5--3-3-3-3-3--5-5-5--7-7-7-7-7--------3---------------------------|
 A|---3-3-3--3-3-3-3-3--5-5-5--7-7-7-7-7--------3---------------------------|
 D|----------3-3-3-3-3--5-5-5--7-7-7-7-7--------3---------------------------|

 


 


 [Book] 


 

 
 e|-------------------------------------------------------------------------|
 B|-------------------------------------------------------------------------|
 D|---12-[x8]--10-[x3]--10-------8-------10---------------------------------|
 A|---10-------8--------10-[x5]--8-[x8]--10-[x8]----------------------------|
 D|---------------------10-------8-------10---------------------------------|

 


 


 [Last Cborus] 


 "Where were you..." "Why did you..."


 

 
 e|-------------------------------------------------------------------------|
 B|-------------------------------------------------------------------------|
 G|---5-------------------5-------------------------------------------------|
 D|---5-------------------5-------------------------------------------------|
 A|---3-------------------3-------------------------------------------------|
 D|-------------------------------------------------------------------------|

 


 


 "We gave up..."


 

 
 e|-------------------------------------------------------------------------|
 B|-------------------------------------------------------------------------|
 G|---5-5-5--5-5-5-5-5--7-7-7--9-9-9-9-9--5-------7-------------------------|
 D|---5-5-5--3-3-3-3-3--5-5-5--7-7-7-7-7--3-[x16]-5-[x16]-------------------|
 A|---3-3-3--3-3-3-3-3--5-5-5--7-7-7-7-7--3-------5-------------------------|
 D|----------3-3-3-3-3--5-5-5--7-7-7-7-7--3-------5-------------------------|

 


 PM _ _ _ _ _ _ _ _ _ _ _ _ _ _ _ _ _ _


 


 

 
 e|-------------------------------------------------------------------------|
 B|-------------------------------------------------------------------------|
 D|---7-7-7--5-5-5-5-5--7-7-7--9--9--9--9--9---------5----------------------|
 A|---5-5-5--5-5-5-5-5--7-7-7--9--9--9--9--9---------5----------------------|
 D|----------5-5-5-5-5--7-7-7--9--9--9--9--9---------5----------------------|
 e|-------------------------------------------------------------------------|
 B|-------------------------------------------------------------------------|
 D|---7-7-7--5-5-5-5-5--7-7-7--9--9--9--9--9---------5----------------------|
 A|---5-5-5--5-5-5-5-5--7-7-7--9--9--9--9--9---------5----------------------|
 D|----------5-5-5-5-5--7-7-7--9--9--9--9--9---------5----------------------|

 


 


 [Outro] 


 

 
 e|-------------------------------------------------------------------------|
 B|-------------------------------------------------------------------------|
 G|---7-7--7-7--9-9--11-----------------------------------------------------|
 D|---7-7--5-5--7-7--9------------------------------------------------------|
 A|---5-5--5-5--7-7--9------------------------------------------------------|
 D|--------5-5--7-7--9------------------------------------------------------|


Important: The song above is NOT stored on the Chordie server. The original song is hosted at www.azchords.com. Chordie works as a search engine and provides on-the-fly formatting. Chordie does not index songs against artists'/composers' will. To remove this song please click here.

This song is displayed as text-only. Transposing and tuning is only available for chordpro-songs.
Rate #1 of 1 versions

Login - add to songbook

SHARE PAGE  



You need to log in to post comments