Guitar Tabs, Chords and Lyrics
Update 25:10. 13:00. Site is back up running again. Songbooks are recovered. Woring on getting search back up..


My Goddess  The Exies

Tuning: Dropped ½ Step
^=Up pick
Intro 4x:
 
 |---------------------|
 |---------------------|
 |---------------------|
 |---------------------|

|-7??9-9??9??8??8??8??8??7---|
 
 |-5-7-7-7-6-6-6-6-5-0-|

VERSE:
[B5] [B5] [D5] [A5] [B5] [B5] [D5] [C5]  
 
 |----------------------------------------|
 |----------------------------------------|
 |----------------------------------------|
 |-----------7-7-----------------7-7--5-5-|
 |-9-9--9-9--5-5--7-7--9-9--9-9--5-5--3-3-|
 |-7-7--7-7-------5-5--7-7--7-7-----------|

CHORUS 2x:
^ ^ ^ ^ ^ ^ ^ ^
 
 |---------------------------------------------------------------------|
 |---------------------------------------------------------------------|
 |---------------7-7-7-9-9-9-9-----------------------------------------|
 |-9-9-9-9-9-9-9-7-7-7-9-9-9-9-5-5-5-5-5-5-5-2-2-2-2-2-2-2-------------|
 |-9-9-9-9-9-9-9-5-5-5-7-7-7-7-5-5-5-5-5-5-5-2-2-2-2-2-2-2-------------|
 |-7-7-7-7-7-7-7---------------3-3-3-3-3-3-3-0-0-0-0-0-0-0-------------|

Little ??Wah?? part after chorus
 
 |-----------------|
 |-----------------|
 |-----------------|
 |7-7-7-x-7-9------|
 |-----------------|
 |-----------------|

Back to verse
Play chorus 2x
Play intro about 8x
Soft part comes
Play chorus 4x after soft part
Play intro 6x
End of song J

Important: The song above is NOT stored on the Chordie server. The original song is hosted at www.azchords.com. Chordie works as a search engine and provides on-the-fly formatting. Chordie does not index songs against artists'/composers' will. To remove this song please click here.

Text color:
Chord color:
Chord grids: 
Font size:    
Page size: 

A5 B5 C5 D5
Rate #1 of 1 versions

Jango Player

Login - add to songbook

SHARE PAGE  



You need to log in to post comments