Guitar Tabs, Chords and Lyrics
Server problems seems to be fixed. Chordie has been experiencing problems with songs disappearing. These issues now seems to be fixed, but still verifying the fix. If you find anything strange, please email admin@chordie.com.


Puta   Extremoduro

 
 -------------------------
 |---------------3-3-3-|---------------3-3-3-|---------------3-3-3-|---------|---------|
 |---------------3-3-3-|---------------3-3-3-|---------------3-3-3-|---------|---------|
 |---5---4---2---4-4-4-|---5---4---2---4-4-4-|---5---4---2---4-4-4-|---------|---------|
 |---5---5---3---5-5-5-|---5---5---3---5-5-5-|---5---5---3---5-5-5-|-----0---|-----0---|
 |-0---0---0---0-5-5-5-|-0---0---0---0-5-5-5-|-0---0---0---0-5-5-5-|---2---2-|---3---3-|
 |---------------3-3-3-|---------------3-3-3-|---------------3-3-3-|-3-------|-4-------|
 |-------------------|-----------------------|-------------------|------------|
 |-------------------|-----------3---3-3-3p0-|-------------------|---------3:-|
 |---5---5---4h5p4p0-|---2---2---4---4h5p4p0-|---5---5---4h5p4p0-|---2---2-4:-|
 |---5---5---5-5-5p0-|---3---3---5---5-5-5p0-|---5---5---5-5-5p0-|---3---3-5:-|
 |-0---0---0---------|-0---0---0---0---------|-0---0---0---------|-0---0------|
 |-------------------|-----------------------|-------------------|------------|

 


 


 


 INTRO


 [-----]  


 

 
 |-------------------------------------|-----------------------------|
 |-------------------------------------|-----------------6---------3-|
 |-----5-----5-----4-----4-----4h5p4p0-|-----5-----5-------5-----3---|
 |-----5-----5-----4-----4-------------|-----5-----5---------5-3-----|
 |-0-0-3-0-0-3-0-0-2-0-0-2-0-0---------|-0-0-3-0-0-3-0-0-------------|
 |-------------------------------------|-----------------------------|
 |-------------------------------------|------------------------------|
 |-------------------------------------|-----------------6---------3:-|
 |-----5-----5-----4-----4-----4h5p4p0-|-----5-----5-------5-----3----|
 |-----5-----5-----4-----4-------------|-----5-----5---------5-3------|
 |-0-0-3-0-0-3-0-0-2-0-0-2-0-0---------|-0-0-3-0-0-3-0-0--------------|
 |-------------------------------------|------------------------------|
 |-----------------------------|-----------------------------|
 |-----------------------------|-----------------------------|
 |-----5-----5-----7-----7^r-7-|-----5-----5-----4-----4^r-4-|
 |-----5-----5-----7-----7^r-7-|-----5-----5-----4-----4^r-4-| x2
 |-0-0-3-0-0-3-0-0-5-0-0-5^r-5-|-0-0-3-0-0-3-0-0-2-0-0-2^r-2-|
 |-----------------------------|-----------------------------|

 


 


 


 RIFF 1


 

 
 ------
 |---------------------------------| |-------------------------|
 |---------------------------------| |-------------------------|
 |-----5-----7-----4-----5-4h5p4p0-| |-----5-----7-----4-----4-|
 |-----5-----7-----4-----5---------| x3 |-----5-----7-----4-----4-|
 |-0-0-3-0-0-5-0-0-2-0-0-3---------| |-0-0-3-0-0-5-0-0-2-0-0-2-|
 |---------------------------------| |-------------------------|

 


 


 


 RIFF 2


 

 
 -------

 


 


 Guitarra 1


 


 

 
 |-------------------------|-----------|-------------------------|
 |-------------------------|-----------|-------------------------|
 |-7^r-7p6p5--7^r-7p6p5----|-------5-4-|-7^r-7p6p5--7^r-7p6p5----|
 |----------------------7~-|---5-7-----|----------------------7~-|
 |-------------------------|-7---------|-------------------------|
 |-------------------------|-----------|-------------------------|

 


 . . . . .


 


 

 
 |----------------------------|-----------|-------------------------|
 |-6-5-------5----------------|-----------|-------------------------|
 |-----7-5-7-----7^r-7p6p5----|-------5-4-|-7^r-7p6p5--7^r-7p6p5----|
 |-------------------------7~-|---5-7-----|----------------------7~-|
 |----------------------------|-7---------|-------------------------|
 |----------------------------|-----------|-------------------------|

 


 . . . . .


 


 

 
 |-------------------|
 |-6-5-------5-------|
 |-----7-5-7---7\9~~-|
 |-------------------|
 |-------------------|
 |-------------------|

 


 


 Guitarra 2


 


 

 
 |-----------------------|
 |-----------------------|
 |-5x5x5x4x4x4x5x5x5-----|

 


 |-5x5x5x4x4x4x5x5x5-3-2-| x2


 |-3x3x3x2x2x2x3x3x3-3-2-|


 

 
 |-------------------1-0-|

 


 


 


 RIFF 3


 

 
 ------
 |---------------------------|-------------|-------------| |----------|
 |---------------------------|-------------|-------------| |----------|
 |-----5-----7-----4-----5-5-|-------------|-------------| |----------|
 |-----5-----7-----4-----5-5-|-----3-----3-|-----4-----4-| x2 |-3:--3-2:-|
 |-0-0-3-0-0-5-0-0-2-0-0-3-3-|-----3-----3-|-----4-----4-| |-3:--3-2:-|
 |---------------------------|-1-1-1-1-1-1-|-2-2-2-2-2-2-| |-1:--1-0:-|

 


 . . . . . . . .


 


 

 
 |---------------------------------|
 |---------------------------------|
 |-----5-----7-----4-----5-4h5p4p0-|
 |-----5-----7-----4-----5---------| x2
 |-0-0-3-0-0-5-0-0-2-0-0-3---------|
 |---------------------------------|

 


 


 


 RIFF 4


 

 
 ------
 |---------------------------------|--------------------|
 |---------------------------------|--------------------|
 |---------------------------------|--------------------|
 |-3---------------5---------------|-7---------------2:-|
 |-3---------------5---------------|-7---------------2:-|
 |-1-1-1-1-1-1-1-1-3-3-3-3-3-3-3-3-|-5-5-5-5-5-5-5-5-0:-|

 


 . . . . . . . . . . . . . .


 


 

 
 |---------------------------------|---------------------|
 |---------------------------------|---------------------|
 |---------------------------------|---------------------|
 |-3---------------5---------------|-7-------------------|
 |-3---------------5---------------|-7--------------5-7:-|
 |-1-1-1-1-1-1-1-1-3-3-3-3-3-3-3-3-|-5-5-5-5-5--5-9------|

 


 . . . . . . . . . . . . . . . . . .


 


 

 
 |---------------------------------|---------------------------------|
 |---------------------------------|---------------------------------|
 |---------------------------------|---------------------------------|
 |-3---------------5---------------|-7---------------9---------------|
 |-3---------------5---------------|-7---------------9---------------|
 |-1-1-1-1-1-1-1-1-3-3-3-3-3-3-3-3-|-5-5-5-5-5-5-5-5-7-7-7-7-7-7-7-7-|

 


 . . . . . . . . . . . . . . . . . . . . . . . . . . . .


 


 

 
 |-------------------------|
 |-------------------------|
 |-10x10--14x14--12x12--9:-|
 |-10x10--14x14--12x12--9:-|
 |--8x-8--12x12--10x10--7:-|
 |-------------------------|

 


 


 


 PUENTE 1


 

 
 --------
 |-------------|
 |-------------|

 


 |-9~-8~-7~-5~-|


 

 
 |-------------|
 |-------------|
 |-------------|

 


 


 


 RIFF 5


 

 
 ------

 


 


 |Guitarra 1


 |


 

 
 |---------------------------|------------|------------|
 |---------------------------|------------|------------|
 |-----5-----7-----4-----5-5-|-------0-2~-|-------0-2~-|
 |-----5-----7-----4-----5-5-|-----2------|-----2------| x2
 |-0-0-3-0-0-5-0-0-2-0-0-3-3-|---2--------|---2--------|
 |---------------------------|-0----------|-0----------|

 


 |


 |Guitarra 2


 |


 

 
 |---------------------------|-----|-----|
 |---------------------------|-----|-----|
 |-----5-----7-----4-----5-5-|-----|-----|
 |-----5-----7-----4-----5-5-|-3:--|-5:--| x2
 |-0-0-3-0-0-5-0-0-2-0-0-3-3-|-3:--|-5:--|
 |---------------------------|-1:--|-3:--|

 


 


 


 RIFF6


 [-----]  


 |Guitarra 1


 |


 

 
 |----------------------------|----------------------------|
 |----------------------------|-----10---------------------|
 |----------------------------|-7\9----7h9p7----------7----|
 |-3-3-2--3-3-5-5-5-5-5-5-5-5-|--------------7--9-10----10-| x3
 |-3-3-2--3-3-5-5-5-5-5-5-5-5-|----------------------------|
 |-1-1-0--1-1-3-3-3-3-3-3-3-3-|----------------------------|

 


 | . . . . . . .


 |


 |Guitarra 2


 |


 

 
 |----------------------------|----------------------------|
 |----------------------------|----------------------------|
 |----------------------------|----------------------------|
 |-3-3--2-3-3-5-5-5-5-5-5-5-5-|-7-7--7-7-7-2-2-2-2-2-2-2-2-| x3
 |-3-3--2-3-3-5-5-5-5-5-5-5-5-|-7-7--7-7-7-2-2-2-2-2-2-2-2-|
 |-1-1--0-1-1-3-3-3-3-3-3-3-3-|-5-5--5-5-5-0-0-0-0-0-0-0-0-|

 


 . . . . . . . . . . . . . .


 


 |Guitarras 1 y 2


 |


 

 
 |------------|-----------|--------|
 |------------|-----------|--------|
 |------------|-----------|--------|
 |-3-3--2-3-3-|-7--7--5:--|-2--2:--|
 |-3-3--2-3-3-|-7--7--5:--|-2--2:--|
 |-1-1--0-1-1-|-5--5--3:--|-0--0:--|

 


 


 


 PUENTE 2


 

 
 --------

 


 


 |Guitarra 1


 |


 

 
 |--------------|
 |--------------|
 |--------------|

 


 |-5~-4~-3~\7~:-|


 

 
 |--------------|
 |--------------|

 


 |


 |Guitarra 2


 |


 

 
 |-------------|----------|
 |-------------|-5-4---7^-|
 |-9~-8~-7~-5~-|-5-4-5-7^-|
 |-------------|-5-4-5-7^-|
 |-------------|-----5----|
 |-------------|----------|

 


 


 


 SOLO


 [----]  


 Guitarra 1


 


 

 
 |---------------------------|------------------------------|
 |---------------------5-8^r-|-8p6-5------------------------|
 |-7^r-7p5-7p5p4h5-4p5-------|-------5h7p5-4p5---5p4--------|
 |---------------------------|-----------------7-----7-5~/0-|
 |---------------------------|------------------------------|
 |---------------------------|------------------------------|
 |-----------------------------------------|
 |----------------8----8-8^^^^^^-----------|
 |---4-5-7-5-7-7^---7^---7^^^^^^-5-4-5-4---|
 |-5-------------------------------------7-|
 |-----------------------------------------|
 |-----------------------------------------|
 |----------------------5-5----5-5----5-5----5-5-7-8-7-5-----|
 |-------5-8p6p5---5----5-5----5-5----5-5----5-5-7-8-7-5-8^^-|
 |-4h5h7---------7---7^-----7^-----7^-----7^-----------------|
 |-----------------------------------------------------------|
 |-----------------------------------------------------------|
 |-----------------------------------------------------------|
 |-----|-------------------------------------------------|
 |-8-5-|---5-8-5---5-8-5---5-8-5---5-8-5---5-8-5---5-8-5-|
 |-----|-7-------7-------7-------7-------7-------7-------|
 |-----|-------------------------------------------------|
 |-----|-------------------------------------------------|
 |-----|-------------------------------------------------|
 |-------------------------------|
 |-------------------------------|
 |-7^r-7p5-7p5p4-5---5h7---4^r/0-|
 |-----------------7-----7-------|
 |-------------------------------|
 |-------------------------------|
 |---------------|---------------|-------------|------------------|--------------------|
 |-17-17----19/0-|-17-17----17/0-|-17-17----17-|----17-19^r-19-17-|----17-19^r-19-17/0-|
 |-17-17----19/0-|-17-17----17/0-|-17-17----17-|----17-19^r-19-17-|----17-19^r-19-17/0-|
 |-------17------|-------17------|-------17----|-17---------------|-17-----------------|
 |---------------|---------------|-------------|------------------|--------------------|
 |---------------|---------------|-------------|------------------|--------------------|
 |-----17-17-17-|
 |-20^----------|
 |--------------|
 |--------------| x10
 |--------------|
 |--------------|
 |-20p19p17-|20p19p17-|20p19p17-|20p19p17-|-----------------------|
 |----------|---------|---------|---------|-20^r-20p19p17-20-20^^-|
 |----------|---------|---------|---------|-----------------------|
 |----------|---------|---------|---------|-----------------------|
 |----------|---------|---------|---------|-----------------------|
 |----------|---------|---------|---------|-----------------------|
 |-----------------------|------------------------------------|
 |-----------------------|------------------------------------|
 |-7^r-7p5-7p5p4h5---5^r-|------------------------------------|
 |-----------------7-----|-7-5-7-----5-7----------------------|
 |-----------------------|-------7-5-----7-6-5-4---5^r-5\15/0-|
 |-----------------------|-----------------------5------------|

 


 


 Guitarra 2


 


 

 
 |---------------------------------| |----------------------| \
 |---------------------------------| |----------------------| |
 |-----5-----7-----4-----5-4h5p4p0-| |-----5-----7----------| |
 |-----5-----7-----4-----5---------| x3 |-----5-----7-----3--2-| | x4
 |-0-0-3-0-0-5-0-0-2-0-0-3---------| |-0-0-3-0-0-5-0-0-3--2-| |
 |---------------------------------| |-----------------1--0-| /

 


 


 


 PUENTE 3


 

 
 --------

 


 


 |Guitarra 1


 |


 

 
 |-------------|---------------------|
 |-------------|-7^-6-5~-------------|
 |----4~-5~-7~-|---------7~-5h7p5p4~-|
 |-7~----------|---------------------|
 |-------------|---------------------|
 |-------------|---------------------|

 


 |


 |Guitarra 2


 |


 

 
 |-----------------------------------------------------------------|-------------------------|
 |-----------------------------------------------------------------|-------------------------|
 |-----------------------------------------------------------------|-10x10--14x14--12x12--9:-|
 |-3---------------5---------------7---------------9---------------|-10x10--14x14--12x12--9:-|
 |-3---------------5---------------7---------------9---------------|--8x-8--12x12--10x10--7:-|
 |-1-1-1-1-1-1-1-1-3-3-3-3-3-3-3-3-5-5-5-5-5-5-5-5-7-7-7-7-7-7-7-7-|-------------------------|

 


 . . . . . . . . . . . . . . . . . . . . . . . . . . . .


 


 


 OUTRO (guitarra acústica)


 

 
 -------------------------
 |-----------------------|---------------------| |------------|
 |-----------3---3-3-3p0-|---------------------| |---------3:-|
 |---2---2---4---4h5p4p0-|---5---5---4-4h5p4p0-| |---2---2-4:-|
 |---3---3---5---5-5-5p0-|---5---5---5-5-5-5p0-| x3 |---3---3-5:-|
 |-0---0---0---0---------|-0---0---0-----------| |-0---0------|
 |-----------------------|---------------------| |------------|

 


 


 


 Estructura


 

 
 ----------


Important: The song above is NOT stored on the Chordie server. The original song is hosted at www.azchords.com. Chordie works as a search engine and provides on-the-fly formatting. Chordie does not index songs against artists'/composers' will. To remove this song please click here.

This song is displayed as text-only. Transposing and tuning is only available for chordpro-songs.
Rate #1 of 1 versions

Jango Player

Login - add to songbook

SHARE PAGE  



You need to log in to post comments