Guitar Tabs, Chords and Lyrics
Server problems seems to be fixed. Chordie has been experiencing problems with songs disappearing. These issues now seems to be fixed, but still verifying the fix. If you find anything strange, please email admin@chordie.com.


Cindy Incidentally  Faces

Gtr I (E A D G B E) - 'Ron Wood - Electric Guitar 1'
Gtr II (E A D G B E) - 'Ron Wood - Electric Guitar 2'
Gtr III (E A D G B E) - 'Ian McLagan - Piano'
Intro 1
Q=112
N.C. D Em D Em
[4/4] Gtr III (Piano arr. for Gtr.)
[B] [E] [E] [E] [E] [E] [E] [E] [E] [+B] [E] [E] [E] [E] [+B]  
 
 |--------------|-------------------|-----------------------|
 |--------------|-7---7-5-(5)-------|-7---7-5-(5)-----------|
 |--------------|-7---7-4-(4)-------|-7---7-4-(4)-----------|
 |--------------|-7---7-5-(5)-------|-7---7-5-(5)-----------|
 |------------5-|-------------------|-----------------------|
 |--------5-7---|-0-0-0-0--0--0-7-5-|-0-0-0-0--0--0-5-7-5-7-|

| E E E E E E E E E E E E E E S S S S
|
| Gtr I
| W W W
 
 |--------------|-------------------|-----------------------|
 |--------------|-------------------|-----------------------|
 |--------------|-------------------|-----------------------|
 |--------------|-------------------|-----------------------|
 |--------------|-------------------|-----------------------|
 |--------------|-------------------|-----------------------|

[D]E E E [Em]E +H [D/A]Q E E E E Q
 
 |-----------------------|------------------||
 |-7---7-5-(5)-----------|------------------||
 |-7---7-4-(4)-----------|-7---7-7-7--7-7---||
 |-7---7-5-(5)-----------|-7---7-7-7--7-7---||
 |-------------------5---|------------------||
 |-0-0-0-0--0--0-5-7---7-|-5-5-7-2-5--5-5-5-||

| E E E E E E S S S S E E E E E E E E
|
| W H Q E E
 
 |-----------------------|------------------||
 |-----------------------|------------------||
 |-----------------------|------------------||
 |-----------------------|---------x\-------||
 |-----------------------|---------x\-----0-||
 |-----------------------|------------------||

Intro 2
[A6]Gtr I[G6] [A6] [G6]
Q e E +Q. E E e e E +E Q E
 
 |-/5--5-\3-(3)-----|-/5-5-5-\3-(3)------|
 |-/7--7-\5-(5)-----|-/7-7-7-\5-(5)------|
 |-/6--6-\4-(4)-----|-/6-----\4-(4)------|
 |-/7--7-\5-(5)-----|-/7-----\5-(5)------|
 |----------------0-|---------------0--0-|
 |------------------|--------------------|

[A6] E e e [G6] E +E Q E [D]e E e E e E e E
 
 |-/5-5-5-\3-(3)-3----|-5-5--------------||
 |-/7-7-7-\5-(5)-5----|-7-7-8-7----------||
 |-/6-----\4-(4)-4----|-----7-7----------||
 |-/7-----\5-(5)-5----|---------7-7-9----||
 |------------------5-|---------5-5-5-0--||
 |--------------------|------------------||

1st & 3rd Verses
$
[A6] Q e [G6] E +Q. E [A6] Q e [G6] E +Q. E [A6] Q e [G6] E +Q. E [D]e e e e e e e E
 
 |-/5--5-\3-(3)-----|-/5--5-\3-(3)-----|-/5--5-\3-(3)-----|------------------|
 |-/7--7-\5-(5)-----|-/7--7-\5-(5)-----|-/7--7-\5-(5)-----|-7-7-7-----7------|
 |-/6--6-\4-(4)-----|-/6--6-\4-(4)-----|-/6--6-\4-(4)-----|-7-7-7-----7------|
 |-/7--7-\5-(5)-----|-/7--7-\5-(5)-----|-/7--7-\5-(5)-----|-7-7-9-----7------|
 |----------------0-|----------------0-|----------------0-|-------8-9---9----|
 |------------------|------------------|------------------|------------------|

[A6] E E E [G6] E +E Q E [A6] E E E [G6] E +E Q E
 
 |-/5-5-5-\3-(3)------|-/5-5-5-\3-(3)------|
 |-/7-7-7-\5-(5)------|-/7-7-7-\5-(5)------|
 |-/6-----\4-(4)------|-/6-----\4-(4)------|
 |-/7-----\5-(5)------|-/7-----\5-(5)------|
 |---------------0--0-|---------------0--0-|
 |--------------------|--------------------|

[A6] E E E [G6] E +E Q E [D]e E e E e E e E
 
 |-/5-5-5-\3-(3)------|------------------|
 |-/7-7-7-\5-(5)------|-7-7-7-7-7-7-7-x--|
 |-/6-----\4-(4)------|-7-7-7-7-7-7-7-x--|
 |-/7-----\5-(5)------|-7-7-9-7-7-7-9-x--|
 |---------------0--0-|------------------|
 |--------------------|------------------|

[A6] E E E [G6] E +Q. E [A6] E E E [G6] E +Q. E
 
 |-/5-5-5-\3-(3)-----|-/5-5-5-\3-(3)-----|
 |-/7-7-7-\5-(5)-----|-/7-7-7-\5-(5)-----|
 |-/6-----\4-(4)-----|-/6-----\4-(4)-----|
 |-/7-----\5-(5)-----|-/7-----\5-(5)-----|
 |-----------------0-|-----------------0-|
 |-------------------|-------------------|

To Coda
[A6] E E E [G6] E +Q. E [D] e E E S S Q E E
 
 |-/5-5-5-\3-(3)------|-10-10------------------------||
 |-/7-7-7-\5-(5)------|-10-10------------------------||
 |-/6-----\4-(4)------|-------12-11h12p11tr12-----7--||
 |-/7-----\5-(5)------|------------------------/9----||
 |-----------------0--|------------------------------||
 |--------------------|------------------------------||

Bridge
[Em]a E a Q a E +E E E E a E Q E +E E E E
 
 |------------------------|-----------------------|
 |---8---8----8-(8)-8---8-|---8-------------------|
 |-7h9-7h9--7h9-(9)-7---7-|-7h9-9b11--9-(9)-7---7-|
 |--------------------9---|-------------------9---|
 |------------------------|-----------------------|
 |------------------------|-----------------------|

a E a Q a E +E E E E [D]E E E E a E E E E
 
 |------------------------|-------------------------|
 |---8---8----8-(8)-8---8-|------10-10-10---8-7---7-|
 |-7h9-7h9--7h9-(9)-7---7-|-9b11----------7h9-7---7-|
 |--------------------9---|---------------------9---|
 |------------------------|-------------------------|
 |------------------------|-------------------------|

[Em]a E a Q a E +E E E E a E Q E +E E E E
 
 |------------------------|-----------------------|
 |---8---8----8-(8)-8---8-|---8-------------------|
 |-7h9-7h9--7h9-(9)-7---7-|-7h9-9b11--9-(9)-7---7-|
 |--------------------9---|-------------------9---|
 |------------------------|-----------------------|
 |------------------------|-----------------------|

a E a Q a E +E E E E [D] E E S S E E E E E
 
 |------------------------|-----------------------17-17---||
 |---8---8----8-(8)-8---8-|--------------15-17b19---------||
 |-7h9-7h9--7h9-(9)-7---7-|-----14-14h16------------------||
 |--------------------9---|-/16---------------------------||
 |------------------------|-------------------------------||
 |------------------------|-------------------------------||

2nd Verse
[A6] Q e [G6] E +E Q E [A6] E E E [G6] E +Q. E
 
 |-/5--5-\3-(3)------|-/5-5-5-\3-(3)-----|
 |-/7--7-\5-(5)------|-/7-7-7-\5-(5)-----|
 |-/6--6-\4-(4)------|-/6-----\4-(4)-----|
 |-/7--7-\5-(5)------|-/7-----\5-(5)-----|
 |--------------0--0-|-----------------0-|
 |-------------------|-------------------|

|
| Gtr II
| W W
 
 |-------------------|-------------------|
 |-------------------|-------------------|
 |-------------------|-------------------|
 |-------------------|-------------------|
 |-------------------|-------------------|
 |-------------------|-------------------|

[A6] E E E [G6] E +Q. E [D] e e e E E Q E
 
 |-/5-5-5-\3-(3)-----|-10-10--------------------|
 |-/7-7-7-\5-(5)-----|-10-10--------------------|
 |-/6-----\4-(4)-----|-------12-10h11-----------|
 |-/7-----\5-(5)-----|----------------12\-------|
 |-----------------0-|--------------------------|
 |-------------------|--------------------------|

|
| W H Q S S E
 
 |-------------------|--------------------------|
 |-------------------|--------------------------|
 |-------------------|--------------------------|
 |-------------------|--------------------------|
 |-------------------|------------------------5-|
 |-------------------|--------------------5h7---|

[A6] E e e [G6] E +E Q E [A6] E e e [G6] E +E Q E [A6] E e e [G6] E +E Q E
 
 |-/5-5-5-\3-(3)---------|-/5-5--5-\3-(3)------|-/5-5--5-\3-(3)-------|
 |-/7-7-7-\5-(5)---------|-/7-7--7-\5-(5)------|-/7-7--7-\5-(5)-------|
 |-/6-----\4-(4)---------|-/6------\4-(4)------|-/6------\4-(4)-------|
 |-/7-----\5-(5)---------|-/7------\5-(5)------|-/7------\5-(5)-------|
 |---------------0-----0-|----------------0--0-|----------------0---0-|
 |-----------------------|---------------------|----------------------|

|
| E E E E +Q S S E E E E E +Q. E E E E E +Q E E
 
 |-----------------------|---------------------|----------------------|
 |-----------------------|---------------------|----------------------|
 |-----------------------|---------------------|----------------------|
 |----7-6--5-(5)---------|----7--9--5-(5)------|----7--9--5-(5)---5-4-|
 |-/9-9-8--7-(7)-------5-|-/9-9-10--7-(7)------|-/9-9-10--7-(7)---7-5-|
 |-----------------5h7---|-------------------7-|----------------------|

[D] Q Q S +S E E S S
 
 |-10------10--------------------------------------||
 |-13b15---13b15-----------------------------------||
 |-------------------------------------------------||
 |-------------------12pb14r(12)-10b10.5-----------||
 |---------------------------------------12\-7s9---||
 |-------------------------------------------------||

|
| E E E E a E E E E
 
 |-------------------------------------------------||
 |-------------------------------------------------||
 |-------7-------7----7-----------7-------7--x-----||
 |-------7-------7-7h=9-----------7-------7--x-----||
 |-/9------/9--------------------------------------||
 |-------------------------------------------------||

Bridge
[Em]Q. a E +E E E E a E a Q a E +E E E E
 
 |--------------------|------------------------|
 |-8------8-(8)-8---8-|---8---8----8-(8)-8---8-|
 |-9----7h9-(9)-7---7-|-7h9-7h9--7h9-(9)-7---7-|
 |----------------9---|--------------------9---|
 |--------------------|------------------------|
 |--------------------|------------------------|

a E a Q a E +E E E E [D] E E E E E E E E
 
 |------------------------|-----------------------|
 |---8---8----8-(8)-8---8-|-----10----8---7-------|
 |-7h9-7h9--7h9-(9)-7---7-|-/11----\9---7------7--|
 |--------------------9---|-----------------/9----|
 |------------------------|-----------------------|
 |------------------------|-----------------------|

[Em]a E a Q a E +E E E E a E a Q E +E E E E
 
 |------------------------|----------------------|
 |---8---8----8-(8)-8---8-|---8---8--------8---8-|
 |-7h9-7h9--7h9-(9)-7---7-|-7h9-7h9--9-(9)-7---7-|
 |--------------------9---|------------------9---|
 |------------------------|----------------------|
 |------------------------|----------------------|

D.S. al Coda
a E a Q a E +E E E E [D]E E E E E Q.
 
 |------------------------|-----------------------||
 |---8---8----8-(8)-8---8-|------10-10-10-10------||
 |-7h9-7h9--7h9-(9)-7---7-|-9b11------------------||
 |--------------------9---|-----------------------||
 |------------------------|------------------0----||
 |------------------------|-----------------------||

&
[D]S S S S S S S S E E E E [A6] E E E [G6] E +Q. E [A6] E E E [G6] E +Q. E
 
 |-------------------------|-/5-5-5-\3-(3)-----|-/5-5-5-\3-(3)-----|
 |-3-3---3-3-3---3-3-3---3-|-/7-7-7-\5-(5)-----|-/7-7-7-\5-(5)-----|
 |-4-2---4-4-2---4-2-4---2-|-/6-----\4-(4)-----|-/6-----\4-(4)-----|
 |-0-0---0-0-0---0-0-0---0-|-/7-----\5-(5)-----|-/7-----\5-(5)-----|
 |-------------------------|-----------------0-|-----------------0-|
 |-------------------------|-------------------|-------------------|

A6 G6 N.C.
E E E E +Q. E Q Q S +S E E E
 
 |-/5-5-5-\3-(3)-----|----------------------------------------||
 |-/7-7-7-\5-(5)-----|-13b15--13b15---------------------------||
 |-/6-----\4-(4)-----|----------------------------------------||
 |-/7-----\5-(5)-----|---------------12pb14r(12)-10b10.5-12---||
 |-----------------0-|--------------------------------------0-||
 |-------------------|----------------------------------------||

|
| Gtr II
| W W
 
 |-------------------|----------------------------------------||
 |-------------------|----------------------------------------||
 |-------------------|----------------------------------------||
 |-------------------|----------------------------------------||
 |-------------------|----------------------------------------||
 |-------------------|----------------------------------------||

Outro
[A] ~~~~~
Q H.
 
 |-------------------------|
 |-------------------------|
 |-12b14---12b14-----------|
 |-------------------------|
 |-------------------------|
 |-------------------------|

|
| E E E E E E E E
 
 |-------------------------|
 |-------------------------|
 |-------------------------|
 |-------------------------|
 |--7----7--9----7-7---9-7-|
 |--5----5--5----5-5---5-5-|

~~~~~ ~~~~~~~~~~~~~~~~~~
E E +H Q H +E Q S +S
 
 |---------------------------|-10-----------(10)----------------------|
 |-13-10-----(10)------------|-13b15========(13)r-13b15---------------|
 |----12b14==(12)r-----------|----------------------------12pb14r(12)-|
 |---------------------------|----------------------------------------|
 |---------------------------|----------------------------------------|
 |---------------------------|----------------------------------------|

|
| E E E E E E E E E E E E E E E E
 
 |---------------------------|----------------------------------------|
 |---------------------------|----------------------------------------|
 |---------------------------|----------------------------------------|
 |---------------------------|----------------------------------------|
 |--7--7-------9---7-7---9-7-|--7-----7-9-7---7---------9--7----------|
 |--5--5-------5---5-5---5-5-|--5-----5-5-5---5---------5--5----------|

[D] [A6] [G6] 
[E] [E] [E] [E] [B] [E] [E] [E] [E] [+B]  
 
 |-------------------------------|-/5---5-\3-(3)-------|
 |-------------------------------|-/7---7-\5-(5)-------|
 |-10b10.5-----------------------|-/6---6-\4-(4)-------|
 |---------12--------------------|-/7---7-\5-(5)-------|
 |------------10-8b8.5-----------|---------------------|
 |---------------------10\-------|---------------------|

|
| E E E E E E E E E E E E E E E E
 
 |-------------------------------|---------------------|
 |-------------------------------|---------------------|
 |-------------------------------|---------------------|
 |--7-------7--9-7------7--7-9-7-|---------------------|
 |--5-------5--5-5------5--5-5-5-|--7-7-9--7--7--7-9-7-|
 |-------------------------------|--5-5-5--5--5--5-5-5-|

[A6] [G6] [A6] [G6] [D] ~~~~~~~~~~~~~~~~~~~~~~
E E E E +Q. E E E E E +H W +W
 
 |-/5-5-5-\3-(3)-------|-/5-5-5-\3-(3)-------|-10-------------|-(10)-----*|
 |-/7-7-7-\5-(5)-------|-/7-7-7-\5-(5)-------|-13pb15=========|=(13)r----*|
 |-/6-----\4-(4)-------|-/6-----\4-(4)-------|----------------|----------*|
 |-/7-----\5-(5)-------|-/7-----\5-(5)-------|----------------|----------*|
 |-------------------0-|---------------------|----------------|----------*|
 |---------------------|---------------------|----------------|----------*|

|
| E E E E E E E E E E E E E E E E W +W
 
 |---------------------|---------------------|----------------|----------*|
 |---------------------|---------------------|--7-------------|--(7)-----*|
 |---------------------|---------------------|--7-------------|--(7)-----*|
 |---------------------|---------------------|--7-------------|--(7)-----*|
 |--7-7-9--7--7--7-9-7-|--7-7-9--7--7--7-9-7-|--5-------------|--(5)-----*|
 |--5-5-5--5--5--5-5-5-|--5-5-5--5--5--5-5-5-|----------------|----------*| 


Important: The song above is NOT stored on the Chordie server. The original song is hosted at www.azchords.com. Chordie works as a search engine and provides on-the-fly formatting. Chordie does not index songs against artists'/composers' will. To remove this song please click here.

Text color:
Chord color:
Chord grids: 
Font size:    
Page size: 

A A6 B D E Em G6
Rate #1 of 3 versions

Login - add to songbook

SHARE PAGE  




You need to log in to post comments