Guitar Tabs, Chords and Lyrics
Server problems seems to be fixed. Chordie has been experiencing problems with songs disappearing. These issues now seems to be fixed, but still verifying the fix. If you find anything strange, please email admin@chordie.com.


Blind  face to face

Face To Face
Blind
Standard Tuning
Intro/Verse: F / D / F / G / C
 
 e---------------------------------------------------------------------
 B---------------------------------------------------------------------
 G-------------------777777777777---------------------555555555555-----
 D--33333333333333---777777777777---333333---555555---555555555555-----
 A--33333333333333---555555555555---333333---555555---333333333333-----
 E--11111111111111------------------111111---333333-------------------- 

Chorus: A / F / G / C
 
 e-----------------------------------------------------------------
 B-----------------------------------------------------------------
 G----------------------------------------------555555555555-------
 D--777777777777---333333333333---555555555555--555555555555-------
 A--777777777777---333333333333---555555555555--333333333333-------
 E--555555555555---111111111111---333333333333---------------------

end of chorus add this:
 
 e ------------------
 B ------------------
 G ------------------

[D] [-777777777777777--]  
[A] [-777777777777777--]  
[E] [-555555555555555--]  
Solo:
 
 e----------------------------------------------------------
 B---------5-5----------------------5-5---------------------
 G---5-5-7------7-7-5-5-------5-5-7------7-7-5-5------------
 D----------------------------------------------------------
 A----------------------------------------------------------
 E----------------------------------------------------------
 e--------------------------------------------------------------------------
 B-----------5-5---------------------------5-5--------8-------5-5--------8--
 G---5-5-7-------7-7-5-5-4-2-4-5-----5-5-7------7-7-5---5-5-7------7-7-5----
 D--------------------------------------------------------------------------
 A--------------------------------------------------------------------------
 E--------------------------------------------------------------------------
 e--------------------------------------
 B----------5-5---------8-6-5--5p6-5----
 G---5-5-7------7-7-5-------------------
 D--------------------------------------
 A--------------------------------------
 E--------------------------------------

Lyrics and Chords-
Intro:
What if I'm [F]right and you are wrong?
What if you [D]knew it all along?
What if I [F]figured out that [G]I did not [C]belong?
Verse 1:
What if it [F]always bothered me?
What if I [D]never did believe?
Would it be [F]wrong if I [G]decided I should [C]leave?
Chorus:
[A]If I pretended I was [F]blind
And struck it from my [G]mind
Would it still be [C]there?
[A]What if I'd do [F]anything to make it seem [G]all right
It's all [C]right
Verse 2:
What if it's [F]all inside my head?
What if those [D]words were never said?
Would it be [F]easier if [G]I could just [C]forget?
Verse 3:
What if I [F]didn't run away?
Could it be [D]any other way?
Would it be [F]wrong if I [G]decided I should [C]stay?
Song Structure: Everything distorted except intro
Intro (Clean)
Verse 1
Chorus
Verse 2
Verse 3
Chorus
Solo
Chorus
Intro
Verse 2

Important: The song above is NOT stored on the Chordie server. The original song is hosted at www.azchords.com. Chordie works as a search engine and provides on-the-fly formatting. Chordie does not index songs against artists'/composers' will. To remove this song please click here.

Text color:
Chord color:
Chord grids: 
Font size:    
Page size: 

A C D E F G
Rate #1 of 5 versions

Jango Player

Login - add to songbook

SHARE PAGE  



You need to log in to post comments