Guitar Tabs, Chords and Lyrics
Major upgrade!! After one year development the new version of Chordie is now online! Please give feedback.


Ashes to Ashes  Faith No More

[Intro Riff] 
 
 e|----------------------------------------------------------------------------------------------|
 B|----------------------------------------------------------------------------------------------|
 G|----------------------------------------------------------------------------------------------|
 D|----------------------------------------------------------------------------------------------|
 A|---------3b5rb---5b6r5------------3b5rb---5b6r5------------3b5rb---5b6r5------------3b5rb---5-|
 D|-0h1p0-0-------0----------0h1p0-0-------0----------0h1p0-0-------0----------0h1p0-0-------0---|

[D] I want them to know it's me
It's on my he[Bb/D]ad
[D] I'll point the finger at me
It's on my he[Bb/D]ad
Give it al[D]l to you
Then I'll be [Bb/D]closer
[Cborus] 
[F]Smiling with the mouth of the oc[C]ean
And I'll [F]wave to you with the arms of the [Bb]mountain
[C]I'll see you
[Riff] 
 
 e|--------------------------------------------------------------------------------------------------|
 B|--------------------------------------------------------------------------------------------------|
 G|--------------------------------------------------------------------------------------------------|
 D|--------------------------------------------------------------------------------------------------|
 A|---------3b5rb---5b6r5------------3b5rb---5b6r5------------3b5rb---5b6r5------------3b5rb---5b6r5-|
 D|-0h1p0-0-------0----------0h1p0-0-------0----------0h1p0-0-------0----------0h1p0-0-------0-------|

[Verse] 
[D] I will let you shout no more
It's on my he[Bb/D]ad
[D] I'll pick you up from the floor
It's on my he[Bb/D]ad
[D] I'll let you even the score
It's on my he[Bb/D]ad
Give it al[D]l to you
Then I'll be [Bb/D]closer
[Cborus] 
[F]Smiling with the mouth of the oc[C]ean
And I'll [F]wave to you with the arms of the [Bb]mountain
[C]I'll see you
[Bridge] 
[D5] [F5] [D5] [F5] [D5] [F5] [D5] [F5]  
[D5] [F5] [D5] [F5] [D5] [F5] [D5] [F5]  
[Solo] 
[D] [Bb/D] [D] [Bb/D]  
[Verse] 
[D] Give the same to me then I'll be [Bb/D]closer, closer
[D] Give the same to me then I'll be [Bb/D]closer, closer
[Cborus] 
[F]Smiling with the mouth of the oc[C]ean
And I'll [F]wave to you with the arms of the [Bb]mountain[C]
[Outro] 
[D5] Give [F5]the same [D5]to me[F5] then I'll [D5]be clo[F5]ser,[D5] clos[F5]er
[D5] Give [F5]the same [D5]to me[F5] then I'll [D5]be clo[F5]ser,[D5] clos[F5]er [D5]

Important: The song above is NOT stored on the Chordie server. The original song is hosted at www.azchords.com. Chordie works as a search engine and provides on-the-fly formatting. Chordie does not index songs against artists'/composers' will. To remove this song please click here.

Text color:
Chord color:
Chord grids: 
Font size:    
Page size: 

Bb Bb/D C D D5 F F5
Rate #1 of 2 versions

Login - add to songbook

SHARE PAGE  




You need to log in to post comments