Guitar Tabs, Chords and Lyrics
Server problems seems to be fixed. Chordie has been experiencing problems with songs disappearing. These issues now seems to be fixed, but still verifying the fix. If you find anything strange, please email admin@chordie.com.


Centuries  Fall Out Boy

Tuning: standard
intro (Lolo)
 
 e|---------------------------------------------------------------------------|
 B|------------12------------12----12--10----10-----10------------------------|
 G|--9--11--12------9--11/12-----9--------12----12-----12---------------------|
 D|---------------------------------------------------------------------------|
 A|---------------------------------------------------------------------------|
 E|---------------------------------------------------------------------------|

chorus (piano bit)
 
 e|------------------| e|--------|
 B|---8--7--5--0-----| B|---8----|
 G|------------------| x15 G|--------|
 D|------------------| D|--------|
 A|------------------| A|--------|
 E|------------------| E|--------|

[book] 
(hey-oh-hey-ya)
 
 e|-------------------------------------------------------|
 B|--12--10----------------12--10-------------------------|
 G|---------12--14--9-(9)----------12--14-----------------|
 D|-------------------------------------------------------|
 A|-------------------------------------------------------|
 E|-------------------------------------------------------|
 e|-------------------------------------------------------|
 B|--12--10-------------------12-12-------12-12-----------|
 G|---------12--14--9---7--9--------7--9------------------|
 D|-------------------------------------------------------|
 A|-------------------------------------------------------|
 E|-------------------------------------------------------|

(harmonics)
 
 e|-------------------------------------------------------------------|
 B|-------------------------------------------------------------------|
 G|-------------------------------------------------------------------|
 D|-------------------------------------------------------------------|
 A|---7--5/7\5/7----7--5/7\5/7----7--5/7\5/7----00000000--5\----------|
 E|-------------------------------------------------------------------|

verse
 
 e|---7---|
 B|---8---|
 G|---9---| repeat through verse. listen for the rhythm
 D|-------|
 A|-------|
 E|-------|

[intro] 
[cborus] 
[book] 
[verse] 
[intro] 
[cborus] 
[book] 
[bridge] 
[intro]x2
[cborus] 
[book] 
[E5] [G5] [C5] [A5] [D5]  
 
 e|-------------------------------|
 B|-------------------------------|
 G|----9----------5--------7------|
 D|----9-----5----5----7---7------|
 A|----7-----5----3----7---5------|
 E|----------3---------5----------|

Some [Em]legends are told
Some turn to [G5]dust or to gold
But you will [C5]remember me
[Am]Remember me
For c[D5]enturies
If [Em]just one mistake is [G5]all it will take
We?ll go down in [C5]history
[Am]Remember me
For [D5]centuries.
[book] 
[Em] [G5] [C5]  
[Am]Remember me
For [D5]centuries
[verse] 
[Em]Mummified my teenage dreams
[G5]Now it?s nothing wrong with me
[C5]The kids are all wrong
[(C5)]The story?s all off
[Am]Heavy metal broke my || [D5]heart
[Em]Come on come on and let me in
[G]Bruises on your thighs like my fingerprints
And [C5]this is supposed to match
The [(C5)]darkness that you felt
I n[Am]ever meant for you to fix [D5]yourself
[intro] Em Am
[cborus] 
[book] 
[verse two] 
[Em]Can?t stop till the whole world knows my name
Cause [G5]I was only born inside my dreams
Unti[C5]l you die for me
As[(C5)] long as there's a light
My [Am]shadow?s over you cause[D5] I am the [Em]opposite of amnesia
[(Em)]And you?re a cherry blossom
You?re about to bloom
You [Am]look so pretty but you?re [D5]gone so soon
[intro] Em Am
[cborus] 
[book] 
[bridge] (probably sounds better acoustic)
[Em]We?ve been here [G]forever
And[C] here?s the frozen[Am] proof
[Em]I could scream fo[G]rever
We [C]are the poisoned [Am]yout[D(5)]h
[intro] x2
[cborus] 
[book] 

Important: The song above is NOT stored on the Chordie server. The original song is hosted at www.azchords.com. Chordie works as a search engine and provides on-the-fly formatting. Chordie does not index songs against artists'/composers' will. To remove this song please click here.

Text color:
Chord color:
Chord grids: 
Font size:    
Page size: 

A5 Am C C5 D(5) D5 E5 Em G G5
Rate #0 of 3 versions

Jango Player

Login - add to songbook

SHARE PAGE  




You need to log in to post comments