Guitar Tabs, Chords and Lyrics
Server problems seems to be fixed. Chordie has been experiencing problems with songs disappearing. These issues now seems to be fixed, but still verifying the fix. If you find anything strange, please email admin@chordie.com.


Champion   Fall Out Boy

 
 e|------------------------------|------------------------------|
 B|------------------------------|------------------------------|
 G|---5-4-2-0-2-----5-4-2-0------|---5-4-2-0-0-----5-4-2-0------|
 D|-------------------------2----|-------------------------0----| (x3)
 A|------------------------------|------------------------------|
 E|------------------------------|------------------------------|

 


 


 (Guitar 2)


 

 
 e|-------------------------0----|-------------------------1----|
 B|-------------------------0----|-------------------------1----|
 G|---5-4-2-0-2-----5-4-2-0------|---5-4-2-0-0-----5-4-2-0------| (x3)
 D|------------------------------|------------------------------|
 A|------------------------------|------------------------------|
 E|------------------------------|------------------------------|

 


 


 [Verse 1] 


 (0:30)


 (Guitar 1)


 

 
 e|------------------------------|------------------------------|
 B|------------------------------|------------------------------|
 G|---5-4-2-0-2-----5-4-2-0------|---5-4-2-0-0-----5-4-2-0------|
 D|-------------------------2----|-------------------------0----|
 A|------------------------------|------------------------------|
 E|------------------------------|------------------------------|
 e|------------------------------|------------------------------|
 B|------------------------------|------------------------------|
 G|---5-4-2-0-2-----5-4-2-0------|---5-4-2-0-0-----5-4-2-0------|
 D|-------------------------2----|------------------------------|
 A|------------------------------|------------------------------|
 E|------------------------------|------------------------------| 

 


 


 (Guitar 2)


 

 
 e|-------------------------0----|-------------------------1----|
 B|-------------------------0----|-------------------------1----|
 G|---5-4-2-0-2-----5-4-2-0------|---5-4-2-0-0-----5-4-2-0------|
 D|------------------------------|------------------------------|
 A|------------------------------|------------------------------|
 E|------------------------------|------------------------------|
 e|-------------------------0----|------------------------------|
 B|-------------------------0----|------------------------------|
 G|---5-4-2-0-2-----5-4-2-0------|---5-4-2-0-0-----5-4-2-0------|
 D|------------------------------|------------------------------|
 A|------------------------------|------------------------------|
 E|------------------------------|------------------------------|

 


 


 [Cborus] 


 (0:51)


 (Guitar 1)


 

 
 e|-------------------------------------------------------------------|
 B|-------------------------------------------------------------------|
 G|-----------5-5-5-5-5-5-5-5-5-5-5-5---5-5-5-5-5-5-5-5-5-5-5-5-------|
 D|-----------x-x-x-x-x-x-x-x-x-x-x-x---x-x-x-x-x-x-x-x-x-x-x-x-------|
 A|-----------3-3-3-3-3-3-3-3-3-3-3-3---3-3-3-3-3-3-3-3-3-3-3-3-------|
 E|-------------------------------------------------------------------|

 


 (x2)


 

 
 e|-------------------------------------------------------------------|
 B|-------------------------------------------------------------------|
 G|---4-4-4-4-4-4-4-4-4-4-4-4-4-4-4-4--4-4-4-4-4-4-4-4-4-4-4-4-4-4-4-4|
 D|---x-x-x-x-x-x-x-x-x-x-x-x-x-x-x-x--x-x-x-x-x-x-x-x-x-x-x-x-x-x-x-x|
 A|---2-2-2-2-2-2-2-2-2-2-2-2-2-2-2-2--2-2-2-2-2-2-2-2-2-2-2-2-2-2-2-2|
 E|-------------------------------------------------------------------|

 


 


 (Guitar 2)


 

 
 e|------------|
 B|------------|
 G|------------|
 D|------------|
 A|---3-2-0----|
 E|---------3--|
 e|-------------------------------------------------------------------|
 B|-------------------------------------------------------------------|
 G|-------------------------------------------------------------------|
 D|---3-3-3-3-3-3-3-3-3-3-3-3---7-7-7-7-7-7-7-7-7-7-7-7---------------|
 A|---x-x-x-x-x-x-x-x-x-x-x-x---x-x-x-x-x-x-x-x-x-x-x-x---------------|
 E|---1-1-1-1-1-1-1-1-1-1-1-1---5-5-5-5-5-5-5-5-5-5-5-5---------------|

 


 (x2)


 

 
 e|-------------------------------------------------------------------|
 B|-------------------------------------------------------------------|
 G|-------------------------------------------------------------------|
 D|---5-5-5-5-5-5-5-5-5-5-5-5-5-5-5-5--5-5-5-5-5-5-5-5-5-5-5-5-5-5-5-5|
 A|---x-x-x-x-x-x-x-x-x-x-x-x-x-x-x-x--x-x-x-x-x-x-x-x-x-x-x-x-x-x-x-x|
 E|---3-3-3-3-3-3-3-3-3-3-3-3-3-3-3-3--3-3-3-3-3-3-3-3-3-3-3-3-3-3-3-3|

 


 


 [Pre-verse] 


 (1:12)


 (Guitar 1)


 

 
 e|-------------------------|
 B|-------------------------|
 G|---2-----5-----4-----4---|
 D|-------------------------|
 A|-------------------------|
 E|-------------------------|

 


 


 (Guitar 2)


 

 
 PM----------------------------------------------------------------
 e|---------------------------------------------------------------------------|
 B|---------------------------------------------------------------------------|
 G|---------------------------------------------------------------------------|
 D|---7-7-7-7-7-7-7-7-7-7-7-7-7-7-7-7--7-7-7-7-7-7-7-7-7-7-7-7-7-7-7-7--------|
 A|---x-x-x-x-x-x-x-x-x-x-x-x-x-x-x-x--x-x-x-x-x-x-x-x-x-x-x-x-x-x-x-x--------|
 E|---5-5-5-5-5-5-5-5-5-5-5-5-5-5-5-5--5-5-5-5-5-5-5-5-5-5-5-5-5-5-5-5--------|
 PM------------------------------
 e|------------------------------------|
 B|------------------------------------|
 G|------------------------------------|
 D|---7-7-7-7-7-7-7-7-7-7-7-7-7-7-7-7--|
 A|---x-x-x-x-x-x-x-x-x-x-x-x-x-x-x-x--|
 E|---5-5-5-5-5-5-5-5-5-5-5-5-5-5-5-5--|

 


 


 [Verse 2] 


 (1:22)


 (Guitar 1)


 

 
 e|------------------------------------------------------------|
 B|------------------------------------------------------------|
 G|---2-----5-4-2-0-------5-4-2-0-0-----5-4-2-0-------5-4-2-0--|
 D|-----------------2---------------------------0--------------|
 A|------------------------------------------------------------|
 E|------------------------------------------------------------|
 e|------------------------------------------------------------|
 B|------------------------------------------------------------|
 G|---2-----5-4-2-0-------5-4-2-0-0-----5-4-2-0----------------|
 D|-----------------2---------------------------0--------------|
 A|------------------------------------------------------------|
 E|------------------------------------------------------------|

 


 


 (Guitar 2)


 

 
 e|-----------------0---------------------------1--------------|
 B|-----------------0---------------------------1--------------|
 G|---2-----5-4-2-0-------5-4-2-0-0-----5-4-2-0-------5-4-2-0--|
 D|------------------------------------------------------------|
 A|------------------------------------------------------------|
 E|------------------------------------------------------------|
 e|---------------0-----------------------------1--------------|
 B|---------------0-----------------------------1--------------|
 G|---2---5-4-2-0-------5-4-2-0-0-------5-4-2-0----------------|
 D|------------------------------------------------------------|
 A|------------------------------------------------------------|
 E|------------------------------------------------------------|

 


 


 (Guitar 3)


 (Comes in at 1:32)


 

 
 e|-----------------------0-0----7hpbr-10-|
 B|-----------------------0-0-------------|
 G|---2-5-4----2-5-4----0-----------------|
 D|---------------------------------------|
 A|---------------------------------------|
 E|---------------------------------------|

 


 


 [Cborus] 


 (1:42)


 (Guitar 1)


 

 
 e|-------------------------------------------------------------------|
 B|-------------------------------------------------------------------|
 G|-----------5-5-5-5-5-5-5-5-5-5-5-5---5-5-5-5-5-5-5-5-5-5-5-5-------|
 D|-----------x-x-x-x-x-x-x-x-x-x-x-x---x-x-x-x-x-x-x-x-x-x-x-x-------|
 A|-----------3-3-3-3-3-3-3-3-3-3-3-3---3-3-3-3-3-3-3-3-3-3-3-3-------|
 E|-------------------------------------------------------------------|

 


 (x2)


 

 
 e|-------------------------------------------------------------------|
 B|-------------------------------------------------------------------|
 G|---4-4-4-4-4-4-4-4-4-4-4-4-4-4-4-4--4-4-4-4-4-4-4-4-4-4-4-4-4-4-4-4|
 D|---x-x-x-x-x-x-x-x-x-x-x-x-x-x-x-x--x-x-x-x-x-x-x-x-x-x-x-x-x-x-x-x|
 A|---2-2-2-2-2-2-2-2-2-2-2-2-2-2-2-2--2-2-2-2-2-2-2-2-2-2-2-2-2-2-2-2|
 E|-------------------------------------------------------------------|

 


 


 (Guitar 2)


 

 
 e|------------|
 B|------------|
 G|------------|
 D|------------|
 A|---3-2-0----|
 E|---------3--|
 e|-------------------------------------------------------------------|
 B|-------------------------------------------------------------------|
 G|-------------------------------------------------------------------|
 D|---3-3-3-3-3-3-3-3-3-3-3-3---7-7-7-7-7-7-7-7-7-7-7-7---------------|
 A|---x-x-x-x-x-x-x-x-x-x-x-x---x-x-x-x-x-x-x-x-x-x-x-x---------------|
 E|---1-1-1-1-1-1-1-1-1-1-1-1---5-5-5-5-5-5-5-5-5-5-5-5---------------|

 


 (x2)


 

 
 e|-------------------------------------------------------------------|
 B|-------------------------------------------------------------------|
 G|-------------------------------------------------------------------|
 D|---5-5-5-5-5-5-5-5-5-5-5-5-5-5-5-5--5-5-5-5-5-5-5-5-5-5-5-5-5-5-5-5|
 A|---x-x-x-x-x-x-x-x-x-x-x-x-x-x-x-x--x-x-x-x-x-x-x-x-x-x-x-x-x-x-x-x|
 E|---3-3-3-3-3-3-3-3-3-3-3-3-3-3-3-3--3-3-3-3-3-3-3-3-3-3-3-3-3-3-3-3|

 


 


 [Bridge] 


 (2:03)


 (Guitar 3)


 

 
 e|---------------3-----x------------|
 B|---------------3-----3------------|
 G|---2-----------3-----2-----5-4-2-0|
 D|---2-----2-----5-----0------------|
 A|---0-----2-----5-----0------------|
 E|---------0-----3------------------|
 e|---------------3-----x---|
 B|---------------3-----3---|
 G|---2-----------3-----2---|
 D|---2-----2-----5-----0---|
 A|---0-----2-----5-----0---|
 E|---------0-----3---------|

 


 


 (Guitar 1)


 (Comes in at 2:13)


 

 
 e|----------------------------------------------------|
 B|----------------------------------------------------|
 G|---2-----5-4-2-0-------5-4-2-0-0-----5-4-2-0--------|
 D|-----------------2---------------------------0------|
 A|----------------------------------------------------|
 E|----------------------------------------------------|

 


 


 (Guitar 2)


 (Comes in at 2:13)


 

 
 e|---5-------------3-------------3--------------------|
 B|---------------------------------------------3------|
 G|----------------------------------------------------|
 D|----------------------------------------------------|
 A|----------------------------------------------------|
 E|----------------------------------------------------|

 


 


 [Cborus] 


 (2:23)


 (Guitar 1)


 

 
 e|-------------------------------------------------------------------|
 B|-------------------------------------------------------------------|
 G|-----------5-5-5-5-5-5-5-5-5-5-5-5---5-5-5-5-5-5-5-5-5-5-5-5-------|
 D|-----------x-x-x-x-x-x-x-x-x-x-x-x---x-x-x-x-x-x-x-x-x-x-x-x-------|
 A|-----------3-3-3-3-3-3-3-3-3-3-3-3---3-3-3-3-3-3-3-3-3-3-3-3-------|
 E|-------------------------------------------------------------------|

 


 (x4)


 

 
 e|-------------------------------------------------------------------|
 B|-------------------------------------------------------------------|
 G|---4-4-4-4-4-4-4-4-4-4-4-4-4-4-4-4--4-4-4-4-4-4-4-4-4-4-4-4-4-4-4-4|
 D|---x-x-x-x-x-x-x-x-x-x-x-x-x-x-x-x--x-x-x-x-x-x-x-x-x-x-x-x-x-x-x-x|
 A|---2-2-2-2-2-2-2-2-2-2-2-2-2-2-2-2--2-2-2-2-2-2-2-2-2-2-2-2-2-2-2-2|
 E|-------------------------------------------------------------------|

 


 


 (Guitar 2)


 

 
 e|------------|
 B|------------|
 G|------------|
 D|------------|
 A|---3-2-0----|
 E|---------3--|
 e|-------------------------------------------------------------------|
 B|-------------------------------------------------------------------|
 G|-------------------------------------------------------------------|
 D|---3-3-3-3-3-3-3-3-3-3-3-3---7-7-7-7-7-7-7-7-7-7-7-7---------------|
 A|---x-x-x-x-x-x-x-x-x-x-x-x---x-x-x-x-x-x-x-x-x-x-x-x---------------|
 E|---1-1-1-1-1-1-1-1-1-1-1-1---5-5-5-5-5-5-5-5-5-5-5-5---------------|

 


 (x4)


 

 
 e|-------------------------------------------------------------------|
 B|-------------------------------------------------------------------|
 G|-------------------------------------------------------------------|
 D|---5-5-5-5-5-5-5-5-5-5-5-5-5-5-5-5--5-5-5-5-5-5-5-5-5-5-5-5-5-5-5-5|
 A|---x-x-x-x-x-x-x-x-x-x-x-x-x-x-x-x--x-x-x-x-x-x-x-x-x-x-x-x-x-x-x-x|
 E|---3-3-3-3-3-3-3-3-3-3-3-3-3-3-3-3--3-3-3-3-3-3-3-3-3-3-3-3-3-3-3-3| 


Important: The song above is NOT stored on the Chordie server. The original song is hosted at www.azchords.com. Chordie works as a search engine and provides on-the-fly formatting. Chordie does not index songs against artists'/composers' will. To remove this song please click here.

This song is displayed as text-only. Transposing and tuning is only available for chordpro-songs.
Rate #2 of 3 versions

Jango Player

Login - add to songbook

SHARE PAGE  



You need to log in to post comments