Guitar Tabs, Chords and Lyrics
Update 25:10. 13:00. Site is back up running again. Songbooks are recovered. Woring on getting search back up..


Saturday  Fall Out Boy

 
 -------------------------------------------------------------------------------

‚??Saturday‚?? ‚?? Fall Out Boy
 
 -------------------------------------------------------------------------------

Tuning: EADGBe
 
 e|---------------0------0---------------------------------------------------
 B|---------------0------0---------------------------------------------------
 G|--------8------1------6-------------9-------------------------------------
 D|-6------9------2------6------4------9-------------------------------------
 A|-6------9------2------4------4------7-------------------------------------
 E|-4------7------0-------------2--------------------------------------------

[G#] [B] [E] [C#] [F#] [E5] 
I'm good to [G#]go
And I'm going nowhere f[B]ast
It could be worse
I could be t[E]aking you there [C#]with me
I'm good to [E]go
But it looks like [B]I'm [F#]still [G#]on [F#]my [E]own
I'm good to [G#]go
For something [B]golden
Though the [F#]motions I've been going through have [E]failed
And I'm [G#]coasting on potential towards a [B]wall
At a [F#]100 miles an hour[E]
When I [G#]say[F#] [E]
[B]Two more wee[F#]ks
My foot is in the [C#]door [E5](yeah)
[B]I can't sle[F#]ep
In the wake of [C#]Satur[E5]day
[B] [F#]  
When these [C#]open doors were [E5]open-ended
[B] [F#]  
When these [C#]open doors were [E5]open-ended
[G#]Pete and I [B]attacked the laws of Astoria
with [F#]promise and precision and [E]mess of youthful innocence
And I [G#]read about the afterlife
But I [B]never really lived more than an [F#]hour (more than an [E]hour)
(Chorus)
(Bridge)
[B] [E] [F#] [G#] [B]  
And I [E]read a[F#]bout the a[G#]fter[B]life
But I [E]never [F#]really [G#]lived [B]
And I [E]read a[F#]bout the a[G#]fter[B]life
But I [E]never [F#]really [G#]lived
(Chorus)
(Ending Chords) F# G# E

Important: The song above is NOT stored on the Chordie server. The original song is hosted at www.azchords.com. Chordie works as a search engine and provides on-the-fly formatting. Chordie does not index songs against artists'/composers' will. To remove this song please click here.

Text color:
Chord color:
Chord grids: 
Font size:    
Page size: 

B C# E E5 F# G#
Rate #1 of 2 versions

Jango Player

Login - add to songbook

SHARE PAGE  



You need to log in to post comments