Guitar Tabs, Chords and Lyrics
Server problems seems to be fixed. Chordie has been experiencing problems with songs disappearing. These issues now seems to be fixed, but still verifying the fix. If you find anything strange, please email admin@chordie.com.


Sophomore Slump or Comeback of the Year   Fall Out Boy

 
 D----99999998888888---2222222---6666-442------|
 A----99999999999999---2222222---6666-442------|
 D----99999999999999---2222222---6666-442------|
 G---------------------------------------------|
 B---------------------------------------------|
 E---------------------------------------------|

 


 


 continued:


 you choose. :) i prefer the 799.


 

 
 D----99999998888888-------------2~--|
 A----99999999999999-----7~------2~--|
 D----99999999999999-----9~--or--2~--|
 G-----------------------9~----------|
 B-----------------------------------|
 E-----------------------------------|

 


 


 Verse:


 


 "we're the therapists, pump..."


 

 
 D----66-4\22/44----------------------| (8x)
 A----66-4\22/44--222-----------------|
 D----66-4\22/44--444-----------------|
 G----------------444-----------------|
 B------------------------------------|
 E------------------------------------|

 


 


 Pre-Verse I:


 "i'll keep singing this..."


 


 

 
 D---9(7x)--4(7x)-6(7x)/9(7x)-b-9(7x)-4(7x)6(7x)4(7x)-|
 A---9------4-----6-----9-----r-9-----4----6----4-----|
 D---9------4-----6-----9-----e-9-----4----6----4-----|
 G----------------------------a-----------------------|
 B----------------------------k-----------------------|
 E----------------------------------------------------|

 


 


 Chorus:


 Are we growing...


 


 

 
 D---(7x)------------------------------|
 A---6----9-(7x)-6(7x)--6(4x)-4(4x)----|
 D---x----x------x------x-----x--------|
 G---8----11-----8------8-----6--------|
 B-------------------------------------|
 E-------------------------------------|
 D----66-4\22/44---------------------|
 A----66-4\22/44--22-----------------|
 D----66-4\22/44--44-----------------|
 G----------------44-----------------|
 B-----------------------------------|
 E-----------------------------------|

 


 


 VerseII: Same as Verse I


 or


 


 

 
 G--44-6/8-8/11-11\8888--|
 B-----------------------|
 E-----------------------|

 


 


 Pre-Chorus II:


 D---9(7x)-4(7x)6(7x)4(7x)-|


 

 
 A---9-----4----6----4-----|
 D---9-----4----6----4-----|
 G-------------------------|
 B-------------------------|
 E-------------------------|

 


 


 **repeat chorus


 


 Chorus 2? haha:


 

 
 D----99999998888888---2222222---6666-442------| (2x)
 A----99999999999999---2222222---6666-442------|
 D----99999999999999---2222222---6666-442------|
 G---------------------------------------------|
 B---------------------------------------------|
 E---------------------------------------------|

 


 


 continued:


 "the Best part of believe is the..."


 [9]  


 [9]9 for 30x


 


 continued:


 [9]  


 [9]9 for i don't know. hahaha


 then,


 "so give in or just.."


 [5] [9]  


 [5]5 (7x) [9]9 (7x)


 


 then the thingy.


 

 
 D-----------------------------|
 A-----------------------------|
 D------11---------------------|
 G---------8-11--------12------|
 B---------------11h12---------|
 E-----------------------------|


Important: The song above is NOT stored on the Chordie server. The original song is hosted at www.azchords.com. Chordie works as a search engine and provides on-the-fly formatting. Chordie does not index songs against artists'/composers' will. To remove this song please click here.

This song is displayed as text-only. Transposing and tuning is only available for chordpro-songs.
Rate #2 of 3 versions

Login - add to songbook

SHARE PAGE  




You need to log in to post comments