Guitar Tabs, Chords and Lyrics
Server problems seems to be fixed. Chordie has been experiencing problems with songs disappearing. These issues now seems to be fixed, but still verifying the fix. If you find anything strange, please email admin@chordie.com.


All Go Down  Far

Far - All Go Down (acoustic)
Drop D Tuning (DADGBE)
Listen to the song for the rhythm and how the lyrics
sync with the chord changes
Intro
[E] [E] [Cadd9] [A7sus2]  
 
 E|---0----|---0----|--------|--------------------------------|
 B|---0----|---0----|---3----|---0----------------------------|
 G|---1----|---1----|---0----|---0------------------2---1-----|
 D|---2----|---2----|---2----|---2-----0--0h2p0---------------|
 A|---2----|---2----|---3----|---0--------------0-------------|
 D|---2----|---2----|--------|--------------------------------|

Too much time spent thinking of ways to die
Sticky liquid filters shield our eyes from the sun
I'll try to be more open in my hope for our time
Blur the lines dividing what is ours, what is mine
(Pause)
Verse
[Cadd9] [Em7]  
 
 E|---3----|---3----|
 B|---3----|---3----|
 G|---0----|---x----|
 D|---2----|---2----|
 A|---3----|---2----|
 E|--------|---2----|

Mother Theresas been working nights
Say no more I'm on my way
Blistered, burned out, on the way down
Say no more I'm on my way
Chorus
[Cadd9] [Cadd9] [Em7] [Dsus4]  
 
 E|---3----|---3----|---3----|---3----|
 B|---3----|---3----|---3----|---3----|
 G|---0----|---0----|---x----|---x----|
 D|---2----|---2----|---2----|---0----|
 A|---3----|---3----|---2----|---0----|
 E|--------|--------|---2----|---0----|

And we all go down
We all go down again
All go down
Verse
[Cadd9] [Em7]  
 
 E|---3----|---3----|
 B|---3----|---3----|
 G|---0----|---x----|
 D|---2----|---2----|
 A|---3----|---2----|
 E|--------|---2----|

Swore I'd bring you something
Swore I'd make it mine
Hands above my head
stealing sunlight from the sky
And I lost myself when you went away
Say no more I'm on my way
Anyway
Goodbye
Chorus x 2
[Cadd9] [Cadd9] [Em7] [Dsus4]  
 
 E|---3----|---3----|---3----|---3----|
 B|---3----|---3----|---3----|---3----|
 G|---0----|---0----|---x----|---x----|
 D|---2----|---2----|---2----|---0----|
 A|---3----|---3----|---2----|---0----|
 E|--------|--------|---2----|---0----|

And we all go down
We all go down again
All go down
Interlude
[Cadd9] [Em7]  
 
 E|---3----|---3----|
 B|---3----|---3----|
 G|---0----|---x----|
 D|---2----|---2----|
 A|---3----|---2----|
 E|--------|---2----|

Outro
[E] [E] [Cadd9] [A7sus2]  
 
 E|---0----|---0----|--------|--------------------------------|
 B|---0----|---0----|---3----|---0----------------------------|
 G|---1----|---1----|---0----|---0------------------2---1-----|
 D|---2----|---2----|---2----|---2-----0--0h2p0---------------|
 A|---2----|---2----|---3----|---0--------------0-------------|
 D|---2----|---2----|--------|--------------------------------|

I will pass on things that I've been shown
You'll see to why I feel so alone in this world
I'll try to be more open in my hope for our time
Blur the lines dividing what is ours, what is mine
Say no more I'm on my way to the sky
Enjoy!

Important: The song above is NOT stored on the Chordie server. The original song is hosted at www.azchords.com. Chordie works as a search engine and provides on-the-fly formatting. Chordie does not index songs against artists'/composers' will. To remove this song please click here.

Text color:
Chord color:
Chord grids: 
Font size:    
Page size: 

A7sus2 Cadd9 Dsus4 E Em7
Rate #1 of 4 versions

Jango Player

Login - add to songbook

SHARE PAGE  



You need to log in to post comments