Guitar Tabs, Chords and Lyrics
Update 25:10. 13:00. Site is back up running again. Songbooks are recovered. Woring on getting search back up..


Glücklich  Farin Urlaub

************************************************
*getabbed by -->Wizopunk666 (Iowa666freenet.de)*
************************************************
Glücklich
(M/T: Urlaub)
[C] [G] [B] [F] [G#] [d] [D#] [E] [a]  
 
 1:-0-|-3-|-1-|-1-|-4-|-1-|-6-|-0-|-0-|
 2:-1-|-0-|-3-|-1-|-4-|-3-|-8-|-0-|-1-|
 3:-0-|-0-|-3-|-2-|-5-|-2-|-8-|-1-|-2-|
 4:-2-|-0-|-3-|-3-|-6-|-0-|-8-|-2-|-2-|
 5:-3-|-2-|-1-|-3-|-6-|---|-6-|-2-|-0-|
 6:---|-3-|---|-1-|-4-|---|---|-0-|---|

Intro(wahrscheinlich nicht mit Gitarre, aber klingt cool; 2tes Mal zusätzlich E-Gitarre mit den
Akkorden schrammeln):
 
 1:----3----|----3----|----3----|----3----|----1----|----1----|----1----|----1----|
 2:-------3-|-------3-|-------3-|-------3-|-------1-|-------1-|-------1-|-------1-|
 3:-5-------|-5-------|-4-------|-4-------|-3-------|-3-------|-2-------|-2-------|
 4:---------|---------|---------|---------|---------|---------|---------|---------|
 5:---------|---------|---------|---------|---------|---------|---------|---------|
 6:---------|---------|---------|---------|---------|---------|---------|---------|
 1:---------|---------|----1----|----1----|--0--|-1-0^1^0------------------|
 2:----4----|----4----|-------1-|-------1-|--1--|---------1----------------|
 3:-1-----3-|-1-----3-|-1-------|-1-------|--0--|-----------3-0------------|
 4:---------|---------|---------|---------|--2--|---------------3^5^3-2----|
 5:---------|---------|---------|---------|--3--|-----------------------3--|
 6:---------|---------|---------|---------|-----|--------------------------|

[C] [G] [B] [F]  
 
 1:----3----|----3----|----3----|----3----|----1----|----1----|----1----|----1----|
 2:-------3-|-------3-|-------3-|-------3-|-------1-|-------1-|-------1-|-------1-|
 3:-5-------|-5-------|-4-------|-4-------|-3-------|-3-------|-2-------|-2-------|
 4:---------|---------|---------|---------|---------|---------|---------|---------|
 5:---------|---------|---------|---------|---------|---------|---------|---------|
 6:---------|---------|---------|---------|---------|---------|---------|---------|

G# f C
 
 1:---------|---------|----1----|----1----|--0--|-1-0^1^0------------------|
 2:----4----|----4----|-------1-|-------1-|--1--|---------1----------------|
 3:-1-----3-|-1-----3-|-1-------|-1-------|--0--|-----------3-0------------|
 4:---------|---------|---------|---------|--2--|---------------3^5^3-2----|
 5:---------|---------|---------|---------|--3--|-----------------------3--|
 6:---------|---------|---------|---------|-----|--------------------------|

1.Strophe:
[a] bist du fleischer[C]meister? [G] studierst du medi[F]zin?
[a] bist du ein zuge[C]reister, [G] oder kommst du aus [F]berlin?
[d]bist du dominatrix oder [F]doch eher devot?
[d]bist du pianistin oder [F]hubschrauberpi[C]lot?
Refrain:
es ist e[B]gal, was du bist, [F]hauptsache ist, es macht dich [C]glücklich[G#] [D#] [B] [F]
[C] es ist e[B]gal, was du bist, [F]hauptsache ist, es macht dich [C]glücklich
2.Strophe:
[G] [a] bist du süchtig nach[C] liebe[G]? oder bist du misa[F]nthrop?
[a] bist du vielleicht ein [C]model?[G] oder eher ein z[F]yklop?
[d]bist du gern im schatten oder [F]immer tief gebräunt?
[d]bist du ein gourmet, bist du [F]imbi?bude[C]nfreund?
Refrain:
es ist e[B]gal, was du bist, [F]hauptsache ist, es macht dich [C]glücklich[G#] [D#] [B] [F]
[C] es ist e[B]gal, was du i?t,[F] hauptsache ist, es macht dich[C] dicklich
B F C E F G C(-->Interlude)
ah, la? dir blo? keinen schei? andrehn: das leben ist schön
Interlude:
[C] [G] [B] [F]  
 
 1:----3----|----3----|----3----|----3----|----1----|----1----|----1----|----1----|
 2:-------3-|-------3-|-------3-|-------3-|-------1-|-------1-|-------1-|-------1-|
 3:-5-------|-5-------|-4-------|-4-------|-3-------|-3-------|-2-------|-2-------|
 4:---------|---------|---------|---------|---------|---------|---------|---------|
 5:---------|---------|---------|---------|---------|---------|---------|---------|
 6:---------|---------|---------|---------|---------|---------|---------|---------|

G# f C
 
 1:---------|---------|----1----|----1----|--0--|-1-0^1^0------------------|
 2:----4----|----4----|-------1-|-------1-|--1--|---------1----------------|
 3:-1-----3-|-1-----3-|-1-------|-1-------|--0--|-----------3-0------------|
 4:---------|---------|---------|---------|--2--|---------------3^5^3-2----|
 5:---------|---------|---------|---------|--3--|-----------------------3--|
 6:---------|---------|---------|---------|-----|--------------------------|

Refrain:
[C] es ist e[B]gal, was du bist, [F]hauptsache ist, es macht dich [C]glücklich[G#] [D#] [B] [F]
[C] es ist e[B]gal, was du fährst, s[F]olang du nur klärst, es hat ei[C]n rücklicht
[B]ah, und [F]falls du [C]mal [E]kein rücklicht[F] hast, dann[G] nimm eine[C] taschenlampö-hö-hö

Important: The song above is NOT stored on the Chordie server. The original song is hosted at www.azchords.com. Chordie works as a search engine and provides on-the-fly formatting. Chordie does not index songs against artists'/composers' will. To remove this song please click here.

Text color:
Chord color:
Chord grids: 
Font size:    
Page size: 

B C D# E F G G#
Rate #1 of 1 versions

Jango Player

Login - add to songbook

SHARE PAGE  




You need to log in to post comments