Guitar Tabs, Chords and Lyrics
Major upgrade!! After one year development the new version of Chordie is now online! Please give feedback.


How Come You Never Go There  Feist

 
 -------------------------------------------------------------------------------

How Come You Never Go There - Leslie Feist
 
 -------------------------------------------------------------------------------

Tuning: Standard
[Am]whoa whoa w[Dm]hoa oh
[Am]whoa whoa w[F]hoa oh
[C]How come you never [F]go there
[C]How come I'm so alo[Dm]ne there
>>This repeats throughout the whole song.<<
whoa whoa whoa oh
whoa whoa whoa oh
How come you never go there
How come I'm so alone there
I went up to your window
Lightly banging on the cymbals
a writ into the night
came storming to your house
My horse had worked the fields too long
And there had lost its innate calm
It's true enough for not at peace
But peace is never where it seems
Our love is not the light it was
When I walk inside the dark, I'm calm
Where we look for where it went
It's only echoes in the melody
Chorus
Solo
We waste time on blame, I wreak revenge
We use energy and footjections
We're living proof we gotta let go
And stop looking through the lay-low
We carry on as if the time is through
You carry on as if i don't love you
And so we find the way to lie
To cover hard I have a doubt
The room's full eyes are empty
Like your letters never sent me
Your words are like a lasso
You're an instrumental tune
Bridge
Chorus x2
>>The song ends on Am.<<
She plays this little riff with some variations along the chorus. It's mainly just
the singing voice.
 
 e|-------------------|---------------------------|
 B|--8----------------|--8------------------------|
 G|-----9--7-----7--9-|-----9--7------------------|
 D|---------10--7-----|---------10--7------7-10-7-|
 A|-------------------|----------------10---------|
 E|-------------------|---------------------------|

Solo
 
 e|-------------------------------|------------------------------|
 B|--10--10-----10------(10)------|--10--10-----10---------------|
 G|---------12-----12~--(12)-(12)-|---------12-----9--10--10--9--|
 D|-------------------------------|-------------------12--12--10-|
 A|-------------------------------|------------------------------|
 E|-------------------------------|------------------------------|

|
 
 |-------------------|------------------------|
 |--8----------------|--8---------------------|
 |-----9--7----7--9--|-----9--7----7----7-----| x2
 |-----------10------|---------10-----10---7--|
 |-------------------|------------------------|
 |-------------------|------------------------|


Important: The song above is NOT stored on the Chordie server. The original song is hosted at www.azchords.com. Chordie works as a search engine and provides on-the-fly formatting. Chordie does not index songs against artists'/composers' will. To remove this song please click here.

Text color:
Chord color:
Chord grids: 
Font size:    
Page size: 

Am C Dm F
Rate #1 of 2 versions

Login - add to songbook

SHARE PAGE  




You need to log in to post comments