Guitar Tabs, Chords and Lyrics
Major upgrade!! After one year development the new version of Chordie is now online! Please give feedback.


Sealion   Feist

 
 E|--------------------| E|---------------------|
 B|--------------------| B|---------------------|
 G|--------------------| [x3] G|---------------------| [x2]
 D|--------------------| D|---------------------| (back the beg.)
 A|--/9-/9--7-7-5---5--| A|----5---5------------|
 E|---------------7----| E|--7---7---7----2-2-2-|

 


 


 ( 1:58 )


 

 
 E|--------------------------------- E|-------------------|
 B|--10----10----10----10----10----- B|----7---7----------|
 G|-----11----11----11----11----11-- [x3] G|--9---9---9----7---| (x4)
 D|--------------------------------- D|-------------9-----|(to 1:58)
 A|--------------------------------- A|-----------------9-|
 E|--------------------------------- E|-------------------|
 E|------------------|
 B|--11b---11-8------|
 G|-------------10-8-| (x3) then it goes too 2:40 , which i couldnt
 D|------------------| really figure out.
 A|------------------|
 E|------------------|


Important: The song above is NOT stored on the Chordie server. The original song is hosted at www.azchords.com. Chordie works as a search engine and provides on-the-fly formatting. Chordie does not index songs against artists'/composers' will. To remove this song please click here.

This song is displayed as text-only. Transposing and tuning is only available for chordpro-songs.
Rate #2 of 2 versions

Jango Player

Login - add to songbook

SHARE PAGE  




You need to log in to post comments