Guitar Tabs, Chords and Lyrics
Server problems seems to be fixed. Chordie has been experiencing problems with songs disappearing. These issues now seems to be fixed, but still verifying the fix. If you find anything strange, please email admin@chordie.com.


Undiscovered First  Feist

Not 100% right, but I hope it will help you.
Please comment for correction.
Tuning: drop D
Capo 4th fret
Am D9 Em Gm Am*
 
 e|-0---0---x----x---x----|
 B|-1---1---0----0---0----|
 G|-2---2---0----0---0----|
 D|-2---0---2----5---7----|
 A|-0---0---2----5---7----|
 D|-x---0---2----5---7----|

Riff 1: Am
 
 e|---------------------------------------------------------0-----|
 B|---------------------------------------------------------1-----|
 G|---------------------------------------------------0--2--2-----|
 D|----5-3----3--0--3-------5---3------3--0---3---3h7-------2-----|
 A|---------------------------------------------------------0-----|
 D|--0----0-0----------0--0-------0-0----------0-0----------x-----|

I had what I thought were clear open eyes, bright blue.
Riff 2: Am
 
 e|---------------------------------------------------------0--0---|
 B|---------------------------------------------------------1--1---|
 G|-------------------------------2-------------------0--2--2--0h2-|
 D|----5-3----3--0--3-------3h5-5----0----5--3----3h7-------2--0h2-|
 A|---------------------------------------------------------0--0---|
 D|--0----0-0----------0--0--------------------0-0----------x--x---|

Vision not of a light, carryin' pictures to lay on you.
Riff 1
Close up eyes, let them in,to a mind opening it's the edge of love.
Riff 1
You can't unthink a thought, either it's there or not.
[D9]Shadows of t[Em]he mount[Gm]ain,
don't [Gm]tell of what's [Em]on e[D9]arth.
The [D9]bredth a[Em]nd the h[Gm]eight
of an [Gm]undisc[Em]overed f[D9]irst.
D9 Em Gm (harder on G string)
[Gm] [Em] [D9]  
Riff 3: D U(hard on top string)
 
 e|---0------------------------------------|
 B|---1-0----------------------------------|
 G|---2-0------0-0---------------1-0-------|
 D|---0---3-0--0-0-------------------3-----|
 A|---0--------2-2-------------------------|
 D|---0--------0-0---------------------0~--|

Riff 1
Now hopeful mountaineers climb up to eclipse the light of the old sun.
Riff 1
Cause it's been said that two would know once the 2'd been told.
[D9]Shadows of t[Em]he mount[Gm]ain,
don't [Gm]tell of what's [Em]on e[D9]arth.
The [D9]bredth a[Em]nd the h[Gm]eight
of an [Gm]undisc[Em]overed f[D9]irst.
[D9]Shadows of t[Em]he mount[Gm]ain,
no tel[Gm]ling what's[Em] in [D9]store.
The [D9]width and [Em]the b[Gm]redth,
Gm Em D9~ (hard on top string)
is it wrong to want more?
[D9]IS T[Gm]HIS THE [D9]RIGHT MOUNTAIN
Am* Gm D9
FOR US TO CLIMB?
Am* Em Gm
IS THIS THE WAY TO LIVE
FOR [Gm]YOU TO [Em]BE [D9]MINE?
[D9]IS T[Gm]HIS THE [D9]RIGHT RIVER
Am* Gm D9
FOR US TO FORGE?
Am* Em Gm
IS THIS THE WAY TO LIVE
Gm Em D9(*)
FOR ME TO BE YOURS?
[D9]IS [Em]THIS THE [Gm]WAY TO LIVE
FOR [Gm]ME TO [Em]BE [D9]YOURS?
[D9]IS [Em]THIS THE [Gm]WAY TO LIVE?
Gm Em D9~
IS IT WRONG TO WANT MORE?
* (sometimes harder on G string)
 
 * e|--------------| (she uses it somewhere)
 B|--------------|
 G|---2-0-2-0-2-0|


Important: The song above is NOT stored on the Chordie server. The original song is hosted at www.azchords.com. Chordie works as a search engine and provides on-the-fly formatting. Chordie does not index songs against artists'/composers' will. To remove this song please click here.

Text color:
Chord color:
Chord grids: 
Font size:    
Page size: 

D9 Em Gm
Rate #1 of 2 versions

Login - add to songbook

SHARE PAGE  



You need to log in to post comments