Guitar Tabs, Chords and Lyrics
Major upgrade!! After one year development the new version of Chordie is now online! Please give feedback.


Andantino   Ferdinando Carulli

 
 E-|---Song:-Andantino------------------------------|
 D-|---Transcription-by:Christian Liang-------------|
 E-|---Enjoy!---------------------------------------|

 


 


 Andantino by Ferdinando Carulli (1770-1841)


 


 Grade 2- Early Intermediate


 


 


 [1] 


 

 
 E|--------------------------|--------------------0-h2--|
 B|--0-----0-----1-----1-----|--3-----3-----3-----------|
 G|-----0-----0-----0-----0--|-----0-----0--------------|
 D|--------------------------|--------------------------|
 A|--------------0-----0-----|--2-----2-----2-----------|
 E|--3-----3-----------------|--------------------------|

 


 | | | | | | | | | | | | | | | | | | |


 R m i m i m i m i m i m i m a


 p p p p p p p


 L 3 3 1 1 4 4 4 2


 [2] [2] [2] 


 [3] 


 

 
 E|--3-----3-----2-----2-----|--0-----0-----------------|
 B|--------------------------|--------------3==========-|
 G|-----0-----0-----0-----0--|-----0-----0--------------|
 D|--2-----2-----0-----0-----|--------------------------|
 A|--------------------------|--3-----3-----2==========-|
 E|--------------------------|--------------------------|

 


 | | | | | | | | | | | | | | | | | | |


 R a i a i a i a i a i a i a


 p p p p p p p


 


 L 4 4 4 2 3 3 4


 [1] [1] [1] [2] 


 


 [5] 


 

 
 E|--------------------0-----|--------------------3-p2--|
 B|--1-----1-----1--------3--|--0-----0-----0-----------|
 G|--2-----2-----2-----------|--0-----0-----0-----------|
 D|-----0-----0-----0--------|-----0-----0-----0--------|
 A|--------------------------|--------------------------|
 E|--------------------------|--------------------------|

 


 | | | | | | | | | | | | | | | | | | |


 


 R m p m p m p a m m p m p m p a


 [i] [i] [i] [i] [i] [i] 


 L 1 1 1 4 4 2


 [2] [2] [2]  


 


 [7] 


 

 
 E|-----0--------------------|--------------------------|
 B|-----------3-----1-----0--|--0h-1--2--3--------------|
 G|--------------------------|--------------2==========-|
 D|--------------------------|--0==========-0==========-|
 A|--3-----2-----0-----------|--------------------------|
 E|--------------------3-----|--------------------------|

 


 | | | | | | | | | | | | | | | | | | |


 


 R p a p m p m p m m m m i


 p p


 


 L 3 2 4 1 3 1 2 3 2


 


 [9] 


 

 
 E|--------2-----------2-----|--3-----------------------|
 B|-----1-----1-----1-----1--|--------3-----0-----0-----|
 G|--------------------------|-----0-----0-----0-----0--|
 D|--0==========-0==========-|--------------------------|
 A|--------------------------|--------------------------|
 E|--------------------------|--3==========-3==========-|

 


 | | | | | | | | | | | | | | | | | | |


 


 R p m a m p m a m a i m i m i m i


 p p


 


 L 1 3 1 1 3 1 4 3 2


 [2]  


 


 [11] 


 

 
 E|--------2-----------2-----|--3-----------------------|
 B|-----1-----1-----1-----1--|--------3-----0-----3-----|
 G|--------------------------|-----0-----0-----0-----0--|
 D|--0==========-0==========-|--------------------------|
 A|--------------------------|--------------------------|
 E|--------------------------|--3==========-3==========-|

 


 | | | | | | | | | | | | | | | | | | |


 


 R p m a m p m a m a i m i m i m i


 p p


 


 L 1 3 1 1 3 1 4 3 2 3


 [2]  


 [13] 


 

 
 E|--------0-----------------|--------2-----------3-----|
 B|--------------------3-----|-----1-----------0--------|
 G|-----0-----------0--------|--------------------------|
 D|--------------------------|--0--------0--2--------2--|
 A|--3--------3--2--------2--|--------------------------|
 E|--------------------------|--------------------------|

 


 | | | | | | | | | | | | | | | | | | |


 


 R p i a p p i m p p m a p p m a p


 


 L 3 3 2 4 2 1 3 2 4 2


 


 [15] 


 

 
 E|-----0--------------------|--------------------------|
 B|--------1-----0-h3--1-----|--------------------------|
 G|-----------2-----------2--|-----0--------------------|
 D|--------------0==========-|--------0-----------------|
 A|--3==========-------------|-----------2--------------|
 E|--------------------------|--3==========-3-----------|


Important: The song above is NOT stored on the Chordie server. The original song is hosted at www.azchords.com. Chordie works as a search engine and provides on-the-fly formatting. Chordie does not index songs against artists'/composers' will. To remove this song please click here.

This song is displayed as text-only. Transposing and tuning is only available for chordpro-songs.
Rate #1 of 3 versions

Jango Player

Login - add to songbook

SHARE PAGE  




You need to log in to post comments